  0
SECTION
  2
HEADER
  9
$HANDSEED
  5
E9
  9
$ACADVER
  1
AC1018
  0
ENDSEC
  0
SECTION
  2
TABLES
  0
TABLE
  2
VPORT
  5
E8
100
AcDbSymbolTable
 70
1
  0
VPORT
  5
6B
100
AcDbSymbolTableRecord
100
AcDbViewportTableRecord
  2
*Active
 70
0
 10
0
 20
0
 11
1
 21
1
 12
158879.552662037
 22
222365.004550771
 13
0
 23
0
 14
1
 24
1
 15
0
 25
0
 16
0
 26
0
 36
1
 17
0
 27
0
 37
0
 40
7.12029905702919
 41
0.967655985347717
 42
0
 43
0
 44
0
 50
0
 51
0
 71
0
 72
0
 73
0
 74
0
 75
0
 76
0
 77
0
 78
0
  0
ENDTAB
  0
TABLE
  2
LTYPE
  5
E0
100
AcDbSymbolTable
 70
3
  0
LTYPE
  5
D4
100
AcDbSymbolTableRecord
100
AcDbLinetypeTableRecord
  2
ByBlock
 70
0
  3

 72
65
 73
0
 40
0
  0
LTYPE
  5
D5
100
AcDbSymbolTableRecord
100
AcDbLinetypeTableRecord
  2
ByLayer
 70
0
  3

 72
65
 73
0
 40
0
  0
ENDTAB
  0
TABLE
  2
LAYER
  5
E6
100
AcDbSymbolTable
 70
21
  0
LAYER
  5
64
100
AcDbSymbolTableRecord
100
AcDbLayerTableRecord
  2
0
 70
0
  6
Continuous
 62
7
390
0
290
1
  0
LAYER
  5
66
100
AcDbSymbolTableRecord
100
AcDbLayerTableRecord
  2
090_MAPPING_Lokaal categorie groep
 70
0
  6
Continuous
420
16711680
390
0
290
1
  0
LAYER
  5
6C
100
AcDbSymbolTableRecord
100
AcDbLayerTableRecord
  2
10_TOTALE_VERDIEPINGSOPPER
 70
0
  6
Continuous
 62
7
390
0
290
1
  0
LAYER
  5
6E
100
AcDbSymbolTableRecord
100
AcDbLayerTableRecord
  2
50_DEUR
 70
0
  6
Continuous
 62
7
390
0
290
1
  0
LAYER
  5
71
100
AcDbSymbolTableRecord
100
AcDbLayerTableRecord
  2
60_RAAM
 70
0
  6
Continuous
 62
7
390
0
290
1
  0
LAYER
  5
74
100
AcDbSymbolTableRecord
100
AcDbLayerTableRecord
  2
LEVEL_AREA
 70
0
  6
Continuous
 62
7
390
0
290
1
  0
LAYER
  5
76
100
AcDbSymbolTableRecord
100
AcDbLayerTableRecord
  2
GROSS_FLOOR_AREA
 70
0
  6
Continuous
 62
7
390
0
290
1
  0
LAYER
  5
77
100
AcDbSymbolTableRecord
100
AcDbLayerTableRecord
  2
INTERNAL_FLOOR_AREA
 70
0
  6
Continuous
 62
7
390
0
290
1
  0
LAYER
  5
78
100
AcDbSymbolTableRecord
100
AcDbLayerTableRecord
  2
NET_FLOOR_AREA
 70
0
  6
Continuous
 62
7
390
0
290
1
  0
LAYER
  5
79
100
AcDbSymbolTableRecord
100
AcDbLayerTableRecord
  2
LAND
 70
0
  6
Continuous
420
16711680
390
0
290
1
  0
LAYER
  5
7A
100
AcDbSymbolTableRecord
100
AcDbLayerTableRecord
  2
LAND_CARD_ANCHOR
 70
0
  6
Continuous
 62
7
390
0
290
1
  0
LAYER
  5
7B
100
AcDbSymbolTableRecord
100
AcDbLayerTableRecord
  2
LAND_CARD
 70
0
  6
Continuous
 62
7
390
0
290
1
  0
LAYER
  5
7C
100
AcDbSymbolTableRecord
100
AcDbLayerTableRecord
  2
LOCATION
 70
0
  6
Continuous
420
16711680
390
0
290
1
  0
LAYER
  5
7F
100
AcDbSymbolTableRecord
100
AcDbLayerTableRecord
  2
LCANCHOR
 70
0
  6
Continuous
 62
7
390
0
290
1
  0
LAYER
  5
88
100
AcDbSymbolTableRecord
100
AcDbLayerTableRecord
  2
LOCCARD
 70
0
  6
Continuous
 62
7
390
0
290
1
  0
LAYER
  5
95
100
AcDbSymbolTableRecord
100
AcDbLayerTableRecord
  2
OUTSIDE
 70
0
  6
Continuous
420
16711680
390
0
290
1
  0
LAYER
  5
96
100
AcDbSymbolTableRecord
100
AcDbLayerTableRecord
  2
OUTSIDE_CARD_ANCHOR
 70
0
  6
Continuous
 62
7
390
0
290
1
  0
LAYER
  5
97
100
AcDbSymbolTableRecord
100
AcDbLayerTableRecord
  2
OUTSIDE_CARD
 70
0
  6
Continuous
 62
7
390
0
290
1
  0
LAYER
  5
98
100
AcDbSymbolTableRecord
100
AcDbLayerTableRecord
  2
MAINTOBJECT
 70
0
  6
Continuous
 62
7
390
0
290
1
  0
LAYER
  5
99
100
AcDbSymbolTableRecord
100
AcDbLayerTableRecord
  2
LEGEND
 70
0
  6
Continuous
420
16711680
390
0
290
1
  0
LAYER
  5
B7
100
AcDbSymbolTableRecord
100
AcDbLayerTableRecord
  2
TITLE_BLOCK
 70
0
  6
Continuous
 62
7
390
0
290
1
  0
ENDTAB
  0
TABLE
  2
STYLE
  5
E7
100
AcDbSymbolTable
 70
1
  0
STYLE
  5
DE
100
AcDbSymbolTableRecord
100
AcDbTextStyleTableRecord
  2
Standard
 70
0
 40
0.0
  3
ARIAL.TTF
  0
ENDTAB
  0
TABLE
  2
VIEW
  5
E4
100
AcDbSymbolTable
 70
0
  0
ENDTAB
  0
TABLE
  2
UCS
  5
E3
100
AcDbSymbolTable
 70
0
  0
ENDTAB
  0
TABLE
  2
APPID
  5
E1
100
AcDbSymbolTable
 70
1
  0
APPID
  5
D6
100
AcDbSymbolTableRecord
100
AcDbRegAppTableRecord
  2
ACAD
 70
0
  0
ENDTAB
  0
TABLE
  2
DIMSTYLE
  5
E5
100
AcDbSymbolTable
 70
1
100
AcDbDimStyleTable
  0
DIMSTYLE
105
DD
100
AcDbSymbolTableRecord
100
AcDbDimStyleTableRecord
  2
ISO-25
 70
0
  0
ENDTAB
  0
TABLE
  2
BLOCK_RECORD
  5
E2
100
AcDbSymbolTable
 70
5
  0
BLOCK_RECORD
  5
85
100
AcDbSymbolTableRecord
100
AcDbBlockTableRecord
  2
$LCANCHOR
 70
0
  0
BLOCK_RECORD
  5
B5
100
AcDbSymbolTableRecord
100
AcDbBlockTableRecord
  2
$LEGENDRCT
 70
0
  0
BLOCK_RECORD
  5
D2
100
AcDbSymbolTableRecord
100
AcDbBlockTableRecord
  2
$TITLE_BLOCK
 70
0
  0
BLOCK_RECORD
  5
D9
100
AcDbSymbolTableRecord
100
AcDbBlockTableRecord
  2
*Model_Space
 70
0
  0
BLOCK_RECORD
  5
DC
100
AcDbSymbolTableRecord
100
AcDbBlockTableRecord
  2
*Paper_Space
 70
0
  0
ENDTAB
  0
ENDSEC
  0
SECTION
  2
BLOCKS
  0
BLOCK
  5
80
100
AcDbEntity
100
AcDbBlockBegin
  2
$LCANCHOR
 70
0
 10
0
 20
0
 30
0
  0
LINE
  5
82
100
AcDbEntity
  8
0
100
AcDbLine
 10
-1
 20
0
 30
0
 11
1
 21
0
 31
0
  0
LINE
  5
83
100
AcDbEntity
  8
0
100
AcDbLine
 10
0
 20
-1
 30
0
 11
0
 21
1
 31
0
  0
LWPOLYLINE
  5
84
100
AcDbEntity
  8
0
100
AcDbPolyline
 90
5
 70
1
 10
0
 20
10
 40
0
 41
0
 10
10
 20
0
 40
0
 41
0
 10
0
 20
-10
 40
0
 41
0
 10
-10
 20
0
 40
0
 41
0
 10
0
 20
10
 40
0
 41
0
  0
ENDBLK
  5
81
100
AcDbEntity
100
AcDbBlockEnd
  0
BLOCK
  5
9A
100
AcDbEntity
100
AcDbBlockBegin
  2
$LEGENDRCT
 70
0
 10
0
 20
0
 30
0
  0
LINE
  5
9C
100
AcDbEntity
  8
0
100
AcDbLine
 10
0
 20
150
 30
0
 11
0
 21
-390
 31
0
  0
LINE
  5
9D
100
AcDbEntity
  8
0
100
AcDbLine
 10
1062.48370682302
 20
0
 30
0
 11
1062.48370682302
 21
-390
 31
0
  0
LINE
  5
9E
100
AcDbEntity
  8
0
100
AcDbLine
 10
1429.47230981721
 20
0
 30
0
 11
1429.47230981721
 21
-390
 31
0
  0
LINE
  5
9F
100
AcDbEntity
  8
0
100
AcDbLine
 10
2019.68073811159
 20
0
 30
0
 11
2019.68073811159
 21
-390
 31
0
  0
LINE
  5
A0
100
AcDbEntity
  8
0
100
AcDbLine
 10
2702.89742694772
 20
150
 30
0
 11
2702.89742694772
 21
-390
 31
0
  0
LINE
  5
A1
100
AcDbEntity
  8
0
100
AcDbLine
 10
0
 20
-390
 30
0
 11
2702.89742694772
 21
-390
 31
0
  0
LINE
  5
A2
100
AcDbEntity
  8
0
100
AcDbLine
 10
0
 20
0
 30
0
 11
2702.89742694772
 21
0
 31
0
  0
LINE
  5
A3
100
AcDbEntity
  8
0
100
AcDbLine
 10
0
 20
-120
 30
0
 11
2702.89742694772
 21
-120
 31
0
  0
LINE
  5
A4
100
AcDbEntity
  8
0
100
AcDbLine
 10
0
 20
-270
 30
0
 11
2702.89742694772
 21
-270
 31
0
  0
LINE
  5
A5
100
AcDbEntity
  8
0
100
AcDbLine
 10
0
 20
150
 30
0
 11
2702.89742694772
 21
150
 31
0
  0
TEXT
  5
A6
100
AcDbEntity
  8
0
420
16711680
100
AcDbText
 10
60
 20
-30
 30
0
 40
60
  1
Lokaalcategoriegroepen
 50
0
 41
1
 39
2
 72
0
 11
60
 21
-30
 31
0
100
AcDbText
 73
3
  0
HATCH
  5
A7
100
AcDbEntity
  8
0
420
16440521
100
AcDbHatch
 10
0.0
 20
0.0
 30
0.0
210
0.0
220
0.0
230
1.0
  2
SOLID
 70
1
 71
0
 91
1
 92
22
 72
1
 73
1
 93
4
 10
60
 20
-150
 42
0
 10
60
 20
-210
 42
0
 10
180
 20
-210
 42
0
 10
180
 20
-150
 42
0
 97
0
 75
0
 76
1
 47
0.0
 98
1
 10
0.0
 20
0.0
  0
LWPOLYLINE
  5
A8
100
AcDbEntity
  8
0
100
AcDbPolyline
 90
5
 70
1
 10
60
 20
-150
 40
0
 41
0
 10
60
 20
-210
 40
0
 41
0
 10
180
 20
-210
 40
0
 41
0
 10
180
 20
-150
 40
0
 41
0
 10
60
 20
-150
 40
0
 41
0
  0
TEXT
  5
A9
100
AcDbEntity
  8
0
420
16711680
100
AcDbText
 10
240
 20
-150
 30
0
 40
60
  1
Berging
 50
0
 41
1
 72
0
 11
240
 21
-150
 31
0
100
AcDbText
 73
3
  0
TEXT
  5
AA
100
AcDbEntity
  8
0
420
16711680
100
AcDbText
 10
763.762504765875
 20
-300
 30
0
 40
60
  1
Totaal
 50
0
 41
1
 72
0
 11
763.762504765875
 21
-300
 31
0
100
AcDbText
 73
3
  0
TEXT
  5
AB
100
AcDbEntity
  8
0
420
16711680
100
AcDbText
 10
1122.48370682302
 20
-30
 30
0
 40
60
  1
Aantal
 50
0
 41
1
 39
2
 72
0
 11
1122.48370682302
 21
-30
 31
0
100
AcDbText
 73
3
  0
TEXT
  5
AC
100
AcDbEntity
  8
0
420
16711680
100
AcDbText
 10
1321.93475442921
 20
-150
 30
0
 40
60
  1
2
 50
0
 41
1
 72
0
 11
1321.93475442921
 21
-150
 31
0
100
AcDbText
 73
3
  0
TEXT
  5
AD
100
AcDbEntity
  8
0
420
16711680
100
AcDbText
 10
1321.93475442921
 20
-300
 30
0
 40
60
  1
2
 50
0
 41
1
 72
0
 11
1321.93475442921
 21
-300
 31
0
100
AcDbText
 73
3
  0
TEXT
  5
AE
100
AcDbEntity
  8
0
420
16711680
100
AcDbText
 10
1489.47230981721
 20
-30
 30
0
 40
60
  1
Oppervlakte
 50
0
 41
1
 39
2
 72
0
 11
1489.47230981721
 21
-30
 31
0
100
AcDbText
 73
3
  0
TEXT
  5
AF
100
AcDbEntity
  8
0
420
16711680
100
AcDbText
 10
1667.22142996366
 20
-150
 30
0
 40
60
  1
9.41 m²
 50
0
 41
1
 72
0
 11
1667.22142996366
 21
-150
 31
0
100
AcDbText
 73
3
  0
TEXT
  5
B0
100
AcDbEntity
  8
0
420
16711680
100
AcDbText
 10
1667.22142996366
 20
-300
 30
0
 40
60
  1
9.41 m²
 50
0
 41
1
 72
0
 11
1667.22142996366
 21
-300
 31
0
100
AcDbText
 73
3
  0
TEXT
  5
B1
100
AcDbEntity
  8
0
420
16711680
100
AcDbText
 10
2079.68073811159
 20
-30
 30
0
 40
60
  1
Oppervlakte %
 50
0
 41
1
 39
2
 72
0
 11
2079.68073811159
 21
-30
 31
0
100
AcDbText
 73
3
  0
TEXT
  5
B2
100
AcDbEntity
  8
0
420
16711680
100
AcDbText
 10
2304.96741364604
 20
-150
 30
0
 40
60
  1
100.00%
 50
0
 41
1
 72
0
 11
2304.96741364604
 21
-150
 31
0
100
AcDbText
 73
3
  0
TEXT
  5
B3
100
AcDbEntity
  8
0
420
16711680
100
AcDbText
 10
2304.96741364604
 20
-300
 30
0
 40
60
  1
100.00%
 50
0
 41
1
 72
0
 11
2304.96741364604
 21
-300
 31
0
100
AcDbText
 73
3
  0
TEXT
  5
B4
100
AcDbEntity
  8
0
420
16711680
100
AcDbText
 10
678.172249663335
 20
120
 30
0
 40
90
  1
Lokaal categorie groep
 50
0
 41
1
 39
2
 72
0
 11
678.172249663335
 21
120
 31
0
100
AcDbText
 73
3
  0
ENDBLK
  5
9B
100
AcDbEntity
100
AcDbBlockEnd
  0
BLOCK
  5
B8
100
AcDbEntity
100
AcDbBlockBegin
  2
$TITLE_BLOCK
 70
0
 10
0
 20
0
 30
0
  0
LWPOLYLINE
  5
BA
100
AcDbEntity
  8
0
100
AcDbPolyline
 90
5
 70
1
 10
0
 20
0
 40
0
 41
0
 10
0
 20
-950
 40
0
 41
0
 10
3482
 20
-950
 40
0
 41
0
 10
3482
 20
0
 40
0
 41
0
 10
0
 20
0
 40
0
 41
0
  0
TEXT
  5
BB
100
AcDbEntity
  8
0
 62
7
100
AcDbText
 10
100
 20
-50
 30
0
 40
100
  1
Tekening
 50
0
 41
1
 72
0
 11
100
 21
-50
 31
0
100
AcDbText
 73
3
  0
TEXT
  5
BC
100
AcDbEntity
  8
0
 62
7
100
AcDbText
 10
100
 20
-200
 30
0
 40
100
  1
Verdieping
 50
0
 41
1
 72
0
 11
100
 21
-200
 31
0
100
AcDbText
 73
3
  0
TEXT
  5
BD
100
AcDbEntity
  8
0
 62
7
100
AcDbText
 10
100
 20
-350
 30
0
 40
100
  1
Gebouw
 50
0
 41
1
 72
0
 11
100
 21
-350
 31
0
100
AcDbText
 73
3
  0
TEXT
  5
BE
100
AcDbEntity
  8
0
 62
7
100
AcDbText
 10
100
 20
-500
 30
0
 40
100
  1
Site
 50
0
 41
1
 72
0
 11
100
 21
-500
 31
0
100
AcDbText
 73
3
  0
TEXT
  5
BF
100
AcDbEntity
  8
0
 62
7
100
AcDbText
 10
100
 20
-650
 30
0
 40
100
  1
Regio
 50
0
 41
1
 72
0
 11
100
 21
-650
 31
0
100
AcDbText
 73
3
  0
TEXT
  5
C0
100
AcDbEntity
  8
0
 62
7
100
AcDbText
 10
100
 20
-800
 30
0
 40
100
  1
Vastgoedeenheid
 50
0
 41
1
 72
0
 11
100
 21
-800
 31
0
100
AcDbText
 73
3
  0
LINE
  5
C1
100
AcDbEntity
  8
0
100
AcDbLine
 10
0
 20
-175
 30
0
 11
1306
 21
-175
 31
0
  0
LINE
  5
C2
100
AcDbEntity
  8
0
100
AcDbLine
 10
0
 20
-325
 30
0
 11
1306
 21
-325
 31
0
  0
LINE
  5
C3
100
AcDbEntity
  8
0
100
AcDbLine
 10
0
 20
-475
 30
0
 11
1306
 21
-475
 31
0
  0
LINE
  5
C4
100
AcDbEntity
  8
0
100
AcDbLine
 10
0
 20
-625
 30
0
 11
1306
 21
-625
 31
0
  0
LINE
  5
C5
100
AcDbEntity
  8
0
100
AcDbLine
 10
0
 20
-775
 30
0
 11
1306
 21
-775
 31
0
  0
TEXT
  5
C6
100
AcDbEntity
  8
0
 62
7
100
AcDbText
 10
1406
 20
-50
 30
0
 40
100
  1
0
 50
0
 41
1
 72
0
 11
1406
 21
-50
 31
0
100
AcDbText
 73
3
  0
TEXT
  5
C7
100
AcDbEntity
  8
0
 62
7
100
AcDbText
 10
1406
 20
-200
 30
0
 40
100
  1
31202G45 V0
 50
0
 41
1
 72
0
 11
1406
 21
-200
 31
0
100
AcDbText
 73
3
  0
TEXT
  5
C8
100
AcDbEntity
  8
0
 62
7
100
AcDbText
 10
1406
 20
-350
 30
0
 40
100
  1
31202G45
 50
0
 41
1
 72
0
 11
1406
 21
-350
 31
0
100
AcDbText
 73
3
  0
TEXT
  5
C9
100
AcDbEntity
  8
0
 62
7
100
AcDbText
 10
1406
 20
-500
 30
0
 40
100
  1
BRASSCHAAT Lage Kaart 538
 50
0
 41
1
 72
0
 11
1406
 21
-500
 31
0
100
AcDbText
 73
3
  0
TEXT
  5
CA
100
AcDbEntity
  8
0
 62
7
100
AcDbText
 10
1406
 20
-650
 30
0
 40
100
  1
SGR 03 INVENTO
 50
0
 41
1
 72
0
 11
1406
 21
-650
 31
0
100
AcDbText
 73
3
  0
TEXT
  5
CB
100
AcDbEntity
  8
0
 62
7
100
AcDbText
 10
1406
 20
-800
 30
0
 40
100
  1

 50
0
 41
1
 72
0
 11
1406
 21
-800
 31
0
100
AcDbText
 73
3
  0
LINE
  5
CC
100
AcDbEntity
  8
0
100
AcDbLine
 10
1306
 20
-175
 30
0
 11
3482
 21
-175
 31
0
  0
LINE
  5
CD
100
AcDbEntity
  8
0
100
AcDbLine
 10
1306
 20
-325
 30
0
 11
3482
 21
-325
 31
0
  0
LINE
  5
CE
100
AcDbEntity
  8
0
100
AcDbLine
 10
1306
 20
-475
 30
0
 11
3482
 21
-475
 31
0
  0
LINE
  5
CF
100
AcDbEntity
  8
0
100
AcDbLine
 10
1306
 20
-625
 30
0
 11
3482
 21
-625
 31
0
  0
LINE
  5
D0
100
AcDbEntity
  8
0
100
AcDbLine
 10
1306
 20
-775
 30
0
 11
3482
 21
-775
 31
0
  0
LINE
  5
D1
100
AcDbEntity
  8
0
100
AcDbLine
 10
1306
 20
0
 30
0
 11
1306
 21
-950
 31
0
  0
ENDBLK
  5
B9
100
AcDbEntity
100
AcDbBlockEnd
  0
BLOCK
  5
D7
100
AcDbEntity
100
AcDbBlockBegin
  2
*Model_Space
 70
1
 10
0
 20
0
 30
0
  0
ENDBLK
  5
D8
100
AcDbEntity
100
AcDbBlockEnd
  0
BLOCK
  5
DA
100
AcDbEntity
100
AcDbBlockBegin
  2
*Paper_Space
 70
1
 10
0
 20
0
 30
0
  0
ENDBLK
  5
DB
100
AcDbEntity
100
AcDbBlockEnd
  0
ENDSEC
  0
SECTION
  2
ENTITIES
  0
HATCH
  5
67
100
AcDbEntity
  8
090_MAPPING_Lokaal categorie groep
420
16440521
100
AcDbHatch
 10
0.0
 20
0.0
 30
0.0
210
0.0
220
0.0
230
1.0
  2
SOLID
 70
1
 71
0
 91
1
 92
22
 72
1
 73
1
 93
8
 10
158883.611953074
 20
222364.891316009
 42
0
 10
158883.451368594
 20
222364.786275702
 42
0
 10
158883.545153487
 20
222364.642898376
 42
0
 10
158882.830734388
 20
222364.176232024
 42
0
 10
158882.737244548
 20
222364.319158275
 42
0
 10
158882.537533805
 20
222364.188524992
 42
0
 10
158881.306950465
 20
222366.0144759
 42
0
 10
158882.374150118
 20
222366.721427745
 42
0
 97
0
 75
1
 76
1
 47
0.0
 98
1
 10
0.0
 20
0.0
  0
LWPOLYLINE
  5
68
100
AcDbEntity
  8
090_MAPPING_Lokaal categorie groep
100
AcDbPolyline
 90
9
 70
0
 10
158883.611953074
 20
222364.891316009
 40
0
 41
0
 10
158883.451368594
 20
222364.786275702
 40
0
 41
0
 10
158883.545153487
 20
222364.642898376
 40
0
 41
0
 10
158882.830734388
 20
222364.176232024
 40
0
 41
0
 10
158882.737244548
 20
222364.319158275
 40
0
 41
0
 10
158882.537533805
 20
222364.188524992
 40
0
 41
0
 10
158881.306950465
 20
222366.0144759
 40
0
 41
0
 10
158882.374150118
 20
222366.721427745
 40
0
 41
0
 10
158883.611953074
 20
222364.891316009
 40
0
 41
0
  0
HATCH
  5
69
100
AcDbEntity
  8
090_MAPPING_Lokaal categorie groep
420
16440521
100
AcDbHatch
 10
0.0
 20
0.0
 30
0.0
210
0.0
220
0.0
230
1.0
  2
SOLID
 70
1
 71
0
 91
1
 92
22
 72
1
 73
1
 93
8
 10
158882.450157975
 20
222366.778251239
 42
0
 10
158884.818987427
 20
222368.334740294
 42
0
 10
158886.050640071
 20
222366.49096332
 42
0
 10
158884.591566523
 20
222365.533456507
 42
0
 10
158884.68666355
 20
222365.388545208
 42
0
 10
158883.866459496
 20
222364.852778968
 42
0
 10
158883.77250323
 20
222364.995951947
 42
0
 10
158883.688633102
 20
222364.940912762
 42
0
 97
0
 75
1
 76
1
 47
0.0
 98
1
 10
0.0
 20
0.0
  0
LWPOLYLINE
  5
6A
100
AcDbEntity
  8
090_MAPPING_Lokaal categorie groep
100
AcDbPolyline
 90
9
 70
0
 10
158882.450157975
 20
222366.778251239
 40
0
 41
0
 10
158884.818987427
 20
222368.334740294
 40
0
 41
0
 10
158886.050640071
 20
222366.49096332
 40
0
 41
0
 10
158884.591566523
 20
222365.533456507
 40
0
 41
0
 10
158884.68666355
 20
222365.388545208
 40
0
 41
0
 10
158883.866459496
 20
222364.852778968
 40
0
 41
0
 10
158883.77250323
 20
222364.995951947
 40
0
 41
0
 10
158883.688633102
 20
222364.940912762
 40
0
 41
0
 10
158882.450157975
 20
222366.778251239
 40
0
 41
0
  0
LWPOLYLINE
  5
6D
100
AcDbEntity
  8
10_TOTALE_VERDIEPINGSOPPER
100
AcDbPolyline
 90
9
 70
1
 10
158882.475824853
 20
222363.944401242
 40
0
 41
0
 10
158882.830734388
 20
222364.176232024
 40
0
 41
0
 10
158883.545153487
 20
222364.642898376
 40
0
 41
0
 10
158883.866459496
 20
222364.852778968
 40
0
 41
0
 10
158884.68666355
 20
222365.388545208
 40
0
 41
0
 10
158886.301885592
 20
222366.443625874
 40
0
 41
0
 10
158884.868003013
 20
222368.564700299
 40
0
 41
0
 10
158881.052662037
 20
222366.064234529
 40
0
 41
0
 10
158882.475824853
 20
222363.944401242
 40
0
 41
0
  0
LWPOLYLINE
  5
6F
100
AcDbEntity
  8
50_DEUR
100
AcDbPolyline
 90
4
 70
1
 10
158883.297400741
 20
222363.461812925
 40
0
 41
0
 10
158882.830734388
 20
222364.176232024
 40
0
 41
0
 10
158883.545153487
 20
222364.642898376
 40
0
 41
0
 10
158883.297400741
 20
222363.461812925
 40
0
 41
0
  0
LWPOLYLINE
  5
70
100
AcDbEntity
  8
50_DEUR
100
AcDbPolyline
 90
4
 70
1
 10
158885.222429789
 20
222364.568341154
 40
0
 41
0
 10
158884.68666355
 20
222365.388545208
 40
0
 41
0
 10
158883.866459496
 20
222364.852778968
 40
0
 41
0
 10
158885.222429789
 20
222364.568341154
 40
0
 41
0
  0
LWPOLYLINE
  5
72
100
AcDbEntity
  8
60_RAAM
100
AcDbPolyline
 90
5
 70
1
 10
158885.270466846
 20
222367.824890761
 40
0
 41
0
 10
158885.300131416
 20
222367.844463427
 40
0
 41
0
 10
158885.785223266
 20
222367.109252309
 40
0
 41
0
 10
158885.755558696
 20
222367.089679643
 40
0
 41
0
 10
158885.270466846
 20
222367.824890761
 40
0
 41
0
  0
LWPOLYLINE
  5
73
100
AcDbEntity
  8
60_RAAM
100
AcDbPolyline
 90
5
 70
1
 10
158882.440237698
 20
222366.84659631
 40
0
 41
0
 10
158882.422203731
 20
222366.873098849
 40
0
 41
0
 10
158883.420202325
 20
222367.552198853
 40
0
 41
0
 10
158883.438236293
 20
222367.525696314
 40
0
 41
0
 10
158882.440237698
 20
222366.84659631
 40
0
 41
0
  0
LWPOLYLINE
  5
75
100
AcDbEntity
  8
LEVEL_AREA
100
AcDbPolyline
 90
9
 70
1
 10
158882.475824853
 20
222363.944401242
 40
0
 41
0
 10
158882.830734388
 20
222364.176232024
 40
0
 41
0
 10
158883.545153487
 20
222364.642898376
 40
0
 41
0
 10
158883.866459496
 20
222364.852778968
 40
0
 41
0
 10
158884.68666355
 20
222365.388545208
 40
0
 41
0
 10
158886.301885592
 20
222366.443625874
 40
0
 41
0
 10
158884.868003013
 20
222368.564700299
 40
0
 41
0
 10
158881.052662037
 20
222366.064234529
 40
0
 41
0
 10
158882.475824853
 20
222363.944401242
 40
0
 41
0
  0
LWPOLYLINE
  5
7D
100
AcDbEntity
  8
LOCATION
100
AcDbPolyline
 90
9
 70
1
 10
158883.611953074
 20
222364.891316009
 40
0
 41
0
 10
158883.451368594
 20
222364.786275702
 40
0
 41
0
 10
158883.545153487
 20
222364.642898376
 40
0
 41
0
 10
158882.830734388
 20
222364.176232024
 40
0
 41
0
 10
158882.737244548
 20
222364.319158275
 40
0
 41
0
 10
158882.537533805
 20
222364.188524992
 40
0
 41
0
 10
158881.306950465
 20
222366.0144759
 40
0
 41
0
 10
158882.374150118
 20
222366.721427745
 40
0
 41
0
 10
158883.611953074
 20
222364.891316009
 40
0
 41
0
  0
LWPOLYLINE
  5
7E
100
AcDbEntity
  8
LOCATION
100
AcDbPolyline
 90
9
 70
1
 10
158882.450157975
 20
222366.778251239
 40
0
 41
0
 10
158884.818987427
 20
222368.334740294
 40
0
 41
0
 10
158886.050640071
 20
222366.49096332
 40
0
 41
0
 10
158884.591566523
 20
222365.533456507
 40
0
 41
0
 10
158884.68666355
 20
222365.388545208
 40
0
 41
0
 10
158883.866459496
 20
222364.852778968
 40
0
 41
0
 10
158883.77250323
 20
222364.995951947
 40
0
 41
0
 10
158883.688633102
 20
222364.940912762
 40
0
 41
0
 10
158882.450157975
 20
222366.778251239
 40
0
 41
0
  0
INSERT
  5
86
100
AcDbEntity
  8
LCANCHOR
100
AcDbBlockReference
  2
$LCANCHOR
 10
158882.459451769
 20
222365.449845854
 30
0
 41
0.01
 42
0.01
  0
INSERT
  5
87
100
AcDbEntity
  8
LCANCHOR
100
AcDbBlockReference
  2
$LCANCHOR
 10
158884.278243931
 20
222366.593759631
 30
0
 41
0.01
 42
0.01
  0
LWPOLYLINE
  5
89
100
AcDbEntity
  8
LOCCARD
100
AcDbPolyline
 90
5
 70
1
 10
158882.459451769
 20
222365.449845854
 40
0
 41
0
 10
158882.459451769
 20
222367.579845854
 40
0
 41
0
 10
158886.125451769
 20
222367.579845854
 40
0
 41
0
 10
158886.125451769
 20
222365.449845854
 40
0
 41
0
 10
158882.459451769
 20
222365.449845854
 40
0
 41
0
  0
TEXT
  5
8A
100
AcDbEntity
  8
LOCCARD
 62
7
100
AcDbText
 10
158882.672451769
 20
222367.016845854
 30
0
 40
0.35
  1
0.01
 50
0
 41
1
 72
0
 11
158882.672451769
 21
222367.016845854
 31
0
100
AcDbText
 73
0
  0
TEXT
  5
8B
100
AcDbEntity
  8
LOCCARD
 62
7
100
AcDbText
 10
158882.672451769
 20
222366.566845854
 30
0
 40
0.3
  1
OPSLAGRUIMTE
 50
0
 41
1
 72
0
 11
158882.672451769
 21
222366.566845854
 31
0
100
AcDbText
 73
0
  0
TEXT
  5
8C
100
AcDbEntity
  8
LOCCARD
 62
7
100
AcDbText
 10
158882.672451769
 20
222366.116845854
 30
0
 40
0.3
  1

 50
0
 41
1
 72
0
 11
158882.672451769
 21
222366.116845854
 31
0
100
AcDbText
 73
0
  0
TEXT
  5
8D
100
AcDbEntity
  8
LOCCARD
 62
7
100
AcDbText
 10
158882.672451769
 20
222365.666845854
 30
0
 40
0.3
  1
Opp: 2.97 m²
 50
0
 41
1
 72
0
 11
158882.672451769
 21
222365.666845854
 31
0
100
AcDbText
 73
0
  0
LINE
  5
8E
100
AcDbEntity
  8
LOCCARD
100
AcDbLine
 10
158882.459451769
 20
222365.449845854
 30
0
 11
158882.459451769
 21
222365.449845854
 31
0
  0
LWPOLYLINE
  5
8F
100
AcDbEntity
  8
LOCCARD
100
AcDbPolyline
 90
5
 70
1
 10
158884.278243931
 20
222366.593759631
 40
0
 41
0
 10
158884.278243931
 20
222368.723759631
 40
0
 41
0
 10
158889.564243931
 20
222368.723759631
 40
0
 41
0
 10
158889.564243931
 20
222366.593759631
 40
0
 41
0
 10
158884.278243931
 20
222366.593759631
 40
0
 41
0
  0
TEXT
  5
90
100
AcDbEntity
  8
LOCCARD
 62
7
100
AcDbText
 10
158884.491243931
 20
222368.160759631
 30
0
 40
0.35
  1
0.02
 50
0
 41
1
 72
0
 11
158884.491243931
 21
222368.160759631
 31
0
100
AcDbText
 73
0
  0
TEXT
  5
91
100
AcDbEntity
  8
LOCCARD
 62
7
100
AcDbText
 10
158884.491243931
 20
222367.710759631
 30
0
 40
0.3
  1
ONDERHOUDSBERGING
 50
0
 41
1
 72
0
 11
158884.491243931
 21
222367.710759631
 31
0
100
AcDbText
 73
0
  0
TEXT
  5
92
100
AcDbEntity
  8
LOCCARD
 62
7
100
AcDbText
 10
158884.491243931
 20
222367.260759631
 30
0
 40
0.3
  1

 50
0
 41
1
 72
0
 11
158884.491243931
 21
222367.260759631
 31
0
100
AcDbText
 73
0
  0
TEXT
  5
93
100
AcDbEntity
  8
LOCCARD
 62
7
100
AcDbText
 10
158884.491243931
 20
222366.810759631
 30
0
 40
0.3
  1
Opp: 6.44 m²
 50
0
 41
1
 72
0
 11
158884.491243931
 21
222366.810759631
 31
0
100
AcDbText
 73
0
  0
LINE
  5
94
100
AcDbEntity
  8
LOCCARD
100
AcDbLine
 10
158884.278243931
 20
222366.593759631
 30
0
 11
158884.278243931
 21
222366.593759631
 31
0
  0
INSERT
  5
B6
100
AcDbEntity
  8
LEGEND
100
AcDbBlockReference
  2
$LEGENDRCT
 10
158874.078690125
 20
222376.278799736
 30
0
 41
0.01
 42
0.01
  0
INSERT
  5
D3
100
AcDbEntity
  8
TITLE_BLOCK
100
AcDbBlockReference
  2
$TITLE_BLOCK
 10
158875.122328748
 20
222358.668697167
 30
0
 41
0.01
 42
0.01
  0
ENDSEC
  0
SECTION
  2
OBJECTS
  0
DICTIONARY
  5
DF
100
AcDbDictionary
  3
ACAD_GROUP
350
1
  3
ACAD_MLINESTYLE
350
2
  0
DICTIONARY
  5
1
100
AcDbDictionary
  0
DICTIONARY
  5
2
100
AcDbDictionary
  0
ENDSEC
  0
EOF
