  0
SECTION
  2
HEADER
  9
$HANDSEED
  5
16B
  9
$ACADVER
  1
AC1018
  0
ENDSEC
  0
SECTION
  2
TABLES
  0
TABLE
  2
VPORT
  5
16A
100
AcDbSymbolTable
 70
1
  0
VPORT
  5
7D
100
AcDbSymbolTableRecord
100
AcDbViewportTableRecord
  2
*Active
 70
0
 10
0
 20
0
 11
1
 21
1
 12
158848.045500003
 22
222446.93385
 13
0
 23
0
 14
1
 24
1
 15
0
 25
0
 16
0
 26
0
 36
1
 17
0
 27
0
 37
0
 40
45.6949000019953
 41
0.150782691278439
 42
0
 43
0
 44
0
 50
0
 51
0
 71
0
 72
0
 73
0
 74
0
 75
0
 76
0
 77
0
 78
0
  0
ENDTAB
  0
TABLE
  2
LTYPE
  5
162
100
AcDbSymbolTable
 70
3
  0
LTYPE
  5
156
100
AcDbSymbolTableRecord
100
AcDbLinetypeTableRecord
  2
ByBlock
 70
0
  3

 72
65
 73
0
 40
0
  0
LTYPE
  5
157
100
AcDbSymbolTableRecord
100
AcDbLinetypeTableRecord
  2
ByLayer
 70
0
  3

 72
65
 73
0
 40
0
  0
ENDTAB
  0
TABLE
  2
LAYER
  5
168
100
AcDbSymbolTable
 70
25
  0
LAYER
  5
64
100
AcDbSymbolTableRecord
100
AcDbLayerTableRecord
  2
0
 70
0
  6
Continuous
 62
7
390
0
290
1
  0
LAYER
  5
66
100
AcDbSymbolTableRecord
100
AcDbLayerTableRecord
  2
090_MAPPING_Lokaal categorie groep
 70
0
  6
Continuous
420
16711680
390
0
290
1
  0
LAYER
  5
7E
100
AcDbSymbolTableRecord
100
AcDbLayerTableRecord
  2
095_interne constructieoppervlakte-ICA
 70
0
  6
Continuous
 62
7
390
0
290
1
  0
LAYER
  5
85
100
AcDbSymbolTableRecord
100
AcDbLayerTableRecord
  2
090_bouwlaagoppervlakte-LA
 70
0
  6
Continuous
 62
7
390
0
290
1
  0
LAYER
  5
87
100
AcDbSymbolTableRecord
100
AcDbLayerTableRecord
  2
050_deur
 70
0
  6
Continuous
 62
7
390
0
290
1
  0
LAYER
  5
94
100
AcDbSymbolTableRecord
100
AcDbLayerTableRecord
  2
060_raam
 70
0
  6
Continuous
 62
7
390
0
290
1
  0
LAYER
  5
A9
100
AcDbSymbolTableRecord
100
AcDbLayerTableRecord
  2
091_bruto vloeroppervlakte-GFA
 70
0
  6
Continuous
 62
7
390
0
290
1
  0
LAYER
  5
AB
100
AcDbSymbolTableRecord
100
AcDbLayerTableRecord
  2
012_noordpijl
 70
0
  6
Continuous
 62
7
390
0
290
1
  0
LAYER
  5
AF
100
AcDbSymbolTableRecord
100
AcDbLayerTableRecord
  2
013_schaalstok
 70
0
  6
Continuous
 62
7
390
0
290
1
  0
LAYER
  5
B9
100
AcDbSymbolTableRecord
100
AcDbLayerTableRecord
  2
LEVEL_AREA
 70
0
  6
Continuous
 62
7
390
0
290
1
  0
LAYER
  5
BB
100
AcDbSymbolTableRecord
100
AcDbLayerTableRecord
  2
GROSS_FLOOR_AREA
 70
0
  6
Continuous
 62
7
390
0
290
1
  0
LAYER
  5
BD
100
AcDbSymbolTableRecord
100
AcDbLayerTableRecord
  2
INTERNAL_FLOOR_AREA
 70
0
  6
Continuous
 62
7
390
0
290
1
  0
LAYER
  5
BE
100
AcDbSymbolTableRecord
100
AcDbLayerTableRecord
  2
NET_FLOOR_AREA
 70
0
  6
Continuous
 62
7
390
0
290
1
  0
LAYER
  5
BF
100
AcDbSymbolTableRecord
100
AcDbLayerTableRecord
  2
LAND
 70
0
  6
Continuous
420
16711680
390
0
290
1
  0
LAYER
  5
C0
100
AcDbSymbolTableRecord
100
AcDbLayerTableRecord
  2
LAND_CARD_ANCHOR
 70
0
  6
Continuous
 62
7
390
0
290
1
  0
LAYER
  5
C1
100
AcDbSymbolTableRecord
100
AcDbLayerTableRecord
  2
LAND_CARD
 70
0
  6
Continuous
 62
7
390
0
290
1
  0
LAYER
  5
C2
100
AcDbSymbolTableRecord
100
AcDbLayerTableRecord
  2
LOCATION
 70
0
  6
Continuous
420
16711680
390
0
290
1
  0
LAYER
  5
CB
100
AcDbSymbolTableRecord
100
AcDbLayerTableRecord
  2
LCANCHOR
 70
0
  6
Continuous
 62
7
390
0
290
1
  0
LAYER
  5
DA
100
AcDbSymbolTableRecord
100
AcDbLayerTableRecord
  2
LOCCARD
 70
0
  6
Continuous
 62
7
390
0
290
1
  0
LAYER
  5
10B
100
AcDbSymbolTableRecord
100
AcDbLayerTableRecord
  2
OUTSIDE
 70
0
  6
Continuous
420
16711680
390
0
290
1
  0
LAYER
  5
10C
100
AcDbSymbolTableRecord
100
AcDbLayerTableRecord
  2
OUTSIDE_CARD_ANCHOR
 70
0
  6
Continuous
 62
7
390
0
290
1
  0
LAYER
  5
10D
100
AcDbSymbolTableRecord
100
AcDbLayerTableRecord
  2
OUTSIDE_CARD
 70
0
  6
Continuous
 62
7
390
0
290
1
  0
LAYER
  5
10E
100
AcDbSymbolTableRecord
100
AcDbLayerTableRecord
  2
MAINTOBJECT
 70
0
  6
Continuous
 62
7
390
0
290
1
  0
LAYER
  5
10F
100
AcDbSymbolTableRecord
100
AcDbLayerTableRecord
  2
LEGEND
 70
0
  6
Continuous
420
16711680
390
0
290
1
  0
LAYER
  5
139
100
AcDbSymbolTableRecord
100
AcDbLayerTableRecord
  2
TITLE_BLOCK
 70
0
  6
Continuous
 62
7
390
0
290
1
  0
ENDTAB
  0
TABLE
  2
STYLE
  5
169
100
AcDbSymbolTable
 70
1
  0
STYLE
  5
160
100
AcDbSymbolTableRecord
100
AcDbTextStyleTableRecord
  2
Standard
 70
0
 40
0.0
  3
ARIAL.TTF
  0
ENDTAB
  0
TABLE
  2
VIEW
  5
166
100
AcDbSymbolTable
 70
0
  0
ENDTAB
  0
TABLE
  2
UCS
  5
165
100
AcDbSymbolTable
 70
0
  0
ENDTAB
  0
TABLE
  2
APPID
  5
163
100
AcDbSymbolTable
 70
1
  0
APPID
  5
158
100
AcDbSymbolTableRecord
100
AcDbRegAppTableRecord
  2
ACAD
 70
0
  0
ENDTAB
  0
TABLE
  2
DIMSTYLE
  5
167
100
AcDbSymbolTable
 70
1
100
AcDbDimStyleTable
  0
DIMSTYLE
105
15F
100
AcDbSymbolTableRecord
100
AcDbDimStyleTableRecord
  2
ISO-25
 70
0
  0
ENDTAB
  0
TABLE
  2
BLOCK_RECORD
  5
164
100
AcDbSymbolTable
 70
5
  0
BLOCK_RECORD
  5
D1
100
AcDbSymbolTableRecord
100
AcDbBlockTableRecord
  2
$LCANCHOR
 70
0
  0
BLOCK_RECORD
  5
137
100
AcDbSymbolTableRecord
100
AcDbBlockTableRecord
  2
$LEGENDRCT
 70
0
  0
BLOCK_RECORD
  5
154
100
AcDbSymbolTableRecord
100
AcDbBlockTableRecord
  2
$TITLE_BLOCK
 70
0
  0
BLOCK_RECORD
  5
15B
100
AcDbSymbolTableRecord
100
AcDbBlockTableRecord
  2
*Model_Space
 70
0
  0
BLOCK_RECORD
  5
15E
100
AcDbSymbolTableRecord
100
AcDbBlockTableRecord
  2
*Paper_Space
 70
0
  0
ENDTAB
  0
ENDSEC
  0
SECTION
  2
BLOCKS
  0
BLOCK
  5
CC
100
AcDbEntity
100
AcDbBlockBegin
  2
$LCANCHOR
 70
0
 10
0
 20
0
 30
0
  0
LINE
  5
CE
100
AcDbEntity
  8
0
100
AcDbLine
 10
-1
 20
0
 30
0
 11
1
 21
0
 31
0
  0
LINE
  5
CF
100
AcDbEntity
  8
0
100
AcDbLine
 10
0
 20
-1
 30
0
 11
0
 21
1
 31
0
  0
LWPOLYLINE
  5
D0
100
AcDbEntity
  8
0
100
AcDbPolyline
 90
5
 70
1
 10
0
 20
10
 40
0
 41
0
 10
10
 20
0
 40
0
 41
0
 10
0
 20
-10
 40
0
 41
0
 10
-10
 20
0
 40
0
 41
0
 10
0
 20
10
 40
0
 41
0
  0
ENDBLK
  5
CD
100
AcDbEntity
100
AcDbBlockEnd
  0
BLOCK
  5
110
100
AcDbEntity
100
AcDbBlockBegin
  2
$LEGENDRCT
 70
0
 10
0
 20
0
 30
0
  0
LINE
  5
112
100
AcDbEntity
  8
0
100
AcDbLine
 10
0
 20
50
 30
0
 11
0
 21
-210
 31
0
  0
LINE
  5
113
100
AcDbEntity
  8
0
100
AcDbLine
 10
311.914499286184
 20
0
 30
0
 11
311.914499286184
 21
-210
 31
0
  0
LINE
  5
114
100
AcDbEntity
  8
0
100
AcDbLine
 10
424.867169826379
 20
0
 30
0
 11
424.867169826379
 21
-210
 31
0
  0
LINE
  5
115
100
AcDbEntity
  8
0
100
AcDbLine
 10
604.140449948571
 20
0
 30
0
 11
604.140449948571
 21
-210
 31
0
  0
LINE
  5
116
100
AcDbEntity
  8
0
100
AcDbLine
 10
816.574034861761
 20
50
 30
0
 11
816.574034861761
 21
-210
 31
0
  0
LINE
  5
117
100
AcDbEntity
  8
0
100
AcDbLine
 10
0
 20
-210
 30
0
 11
816.574034861761
 21
-210
 31
0
  0
LINE
  5
118
100
AcDbEntity
  8
0
100
AcDbLine
 10
0
 20
0
 30
0
 11
816.574034861761
 21
0
 31
0
  0
LINE
  5
119
100
AcDbEntity
  8
0
100
AcDbLine
 10
0
 20
-40
 30
0
 11
816.574034861761
 21
-40
 31
0
  0
LINE
  5
11A
100
AcDbEntity
  8
0
100
AcDbLine
 10
0
 20
-170
 30
0
 11
816.574034861761
 21
-170
 31
0
  0
LINE
  5
11B
100
AcDbEntity
  8
0
100
AcDbLine
 10
0
 20
50
 30
0
 11
816.574034861761
 21
50
 31
0
  0
TEXT
  5
11C
100
AcDbEntity
  8
0
420
16711680
100
AcDbText
 10
20
 20
-10
 30
0
 40
20
  1
Lokaalcategoriegroepen
 50
0
 41
1
 39
2
 72
0
 11
20
 21
-10
 31
0
100
AcDbText
 73
3
  0
HATCH
  5
11D
100
AcDbEntity
  8
0
420
12510413
100
AcDbHatch
 10
0.0
 20
0.0
 30
0.0
210
0.0
220
0.0
230
1.0
  2
SOLID
 70
1
 71
0
 91
1
 92
22
 72
1
 73
1
 93
4
 10
20
 20
-50
 42
0
 10
20
 20
-70
 42
0
 10
60
 20
-70
 42
0
 10
60
 20
-50
 42
0
 97
0
 75
0
 76
1
 47
0.0
 98
1
 10
0.0
 20
0.0
  0
LWPOLYLINE
  5
11E
100
AcDbEntity
  8
0
100
AcDbPolyline
 90
5
 70
1
 10
20
 20
-50
 40
0
 41
0
 10
20
 20
-70
 40
0
 41
0
 10
60
 20
-70
 40
0
 41
0
 10
60
 20
-50
 40
0
 41
0
 10
20
 20
-50
 40
0
 41
0
  0
HATCH
  5
11F
100
AcDbEntity
  8
0
420
12713983
100
AcDbHatch
 10
0.0
 20
0.0
 30
0.0
210
0.0
220
0.0
230
1.0
  2
SOLID
 70
1
 71
0
 91
1
 92
22
 72
1
 73
1
 93
4
 10
20
 20
-90
 42
0
 10
20
 20
-110
 42
0
 10
60
 20
-110
 42
0
 10
60
 20
-90
 42
0
 97
0
 75
0
 76
1
 47
0.0
 98
1
 10
0.0
 20
0.0
  0
LWPOLYLINE
  5
120
100
AcDbEntity
  8
0
100
AcDbPolyline
 90
5
 70
1
 10
20
 20
-90
 40
0
 41
0
 10
20
 20
-110
 40
0
 41
0
 10
60
 20
-110
 40
0
 41
0
 10
60
 20
-90
 40
0
 41
0
 10
20
 20
-90
 40
0
 41
0
  0
HATCH
  5
121
100
AcDbEntity
  8
0
420
16761312
100
AcDbHatch
 10
0.0
 20
0.0
 30
0.0
210
0.0
220
0.0
230
1.0
  2
SOLID
 70
1
 71
0
 91
1
 92
22
 72
1
 73
1
 93
4
 10
20
 20
-130
 42
0
 10
20
 20
-150
 42
0
 10
60
 20
-150
 42
0
 10
60
 20
-130
 42
0
 97
0
 75
0
 76
1
 47
0.0
 98
1
 10
0.0
 20
0.0
  0
LWPOLYLINE
  5
122
100
AcDbEntity
  8
0
100
AcDbPolyline
 90
5
 70
1
 10
20
 20
-130
 40
0
 41
0
 10
20
 20
-150
 40
0
 41
0
 10
60
 20
-150
 40
0
 41
0
 10
60
 20
-130
 40
0
 41
0
 10
20
 20
-130
 40
0
 41
0
  0
TEXT
  5
123
100
AcDbEntity
  8
0
420
16711680
100
AcDbText
 10
80
 20
-50
 30
0
 40
20
  1
Circulatie
 50
0
 41
1
 72
0
 11
80
 21
-50
 31
0
100
AcDbText
 73
3
  0
TEXT
  5
124
100
AcDbEntity
  8
0
420
16711680
100
AcDbText
 10
80
 20
-90
 30
0
 40
20
  1
Internaat
 50
0
 41
1
 72
0
 11
80
 21
-90
 31
0
100
AcDbText
 73
3
  0
TEXT
  5
125
100
AcDbEntity
  8
0
420
16711680
100
AcDbText
 10
80
 20
-130
 30
0
 40
20
  1
Sanitair
 50
0
 41
1
 72
0
 11
80
 21
-130
 31
0
100
AcDbText
 73
3
  0
TEXT
  5
126
100
AcDbEntity
  8
0
420
16711680
100
AcDbText
 10
225.593889704188
 20
-180
 30
0
 40
20
  1
Totaal
 50
0
 41
1
 72
0
 11
225.593889704188
 21
-180
 31
0
100
AcDbText
 73
3
  0
TEXT
  5
127
100
AcDbEntity
  8
0
420
16711680
100
AcDbText
 10
331.914499286184
 20
-10
 30
0
 40
20
  1
Aantal
 50
0
 41
1
 39
2
 72
0
 11
331.914499286184
 21
-10
 31
0
100
AcDbText
 73
3
  0
TEXT
  5
128
100
AcDbEntity
  8
0
420
16711680
100
AcDbText
 10
391.60304790998
 20
-50
 30
0
 40
20
  1
3
 50
0
 41
1
 72
0
 11
391.60304790998
 21
-50
 31
0
100
AcDbText
 73
3
  0
TEXT
  5
129
100
AcDbEntity
  8
0
420
16711680
100
AcDbText
 10
391.60304790998
 20
-90
 30
0
 40
20
  1
4
 50
0
 41
1
 72
0
 11
391.60304790998
 21
-90
 31
0
100
AcDbText
 73
3
  0
TEXT
  5
12A
100
AcDbEntity
  8
0
420
16711680
100
AcDbText
 10
391.60304790998
 20
-130
 30
0
 40
20
  1
1
 50
0
 41
1
 72
0
 11
391.60304790998
 21
-130
 31
0
100
AcDbText
 73
3
  0
TEXT
  5
12B
100
AcDbEntity
  8
0
420
16711680
100
AcDbText
 10
391.60304790998
 20
-180
 30
0
 40
20
  1
8
 50
0
 41
1
 72
0
 11
391.60304790998
 21
-180
 31
0
100
AcDbText
 73
3
  0
TEXT
  5
12C
100
AcDbEntity
  8
0
420
16711680
100
AcDbText
 10
444.867169826379
 20
-10
 30
0
 40
20
  1
Oppervlakte
 50
0
 41
1
 39
2
 72
0
 11
444.867169826379
 21
-10
 31
0
100
AcDbText
 73
3
  0
TEXT
  5
12D
100
AcDbEntity
  8
0
420
16711680
100
AcDbText
 10
478.027474617377
 20
-50
 30
0
 40
20
  1
139.43 m²
 50
0
 41
1
 72
0
 11
478.027474617377
 21
-50
 31
0
100
AcDbText
 73
3
  0
TEXT
  5
12E
100
AcDbEntity
  8
0
420
16711680
100
AcDbText
 10
478.027474617377
 20
-90
 30
0
 40
20
  1
184.20 m²
 50
0
 41
1
 72
0
 11
478.027474617377
 21
-90
 31
0
100
AcDbText
 73
3
  0
TEXT
  5
12F
100
AcDbEntity
  8
0
420
16711680
100
AcDbText
 10
504.555718450176
 20
-130
 30
0
 40
20
  1
2.60 m²
 50
0
 41
1
 72
0
 11
504.555718450176
 21
-130
 31
0
100
AcDbText
 73
3
  0
TEXT
  5
130
100
AcDbEntity
  8
0
420
16711680
100
AcDbText
 10
478.027474617377
 20
-180
 30
0
 40
20
  1
326.23 m²
 50
0
 41
1
 72
0
 11
478.027474617377
 21
-180
 31
0
100
AcDbText
 73
3
  0
TEXT
  5
131
100
AcDbEntity
  8
0
420
16711680
100
AcDbText
 10
624.140449948571
 20
-10
 30
0
 40
20
  1
Oppervlakte %
 50
0
 41
1
 39
2
 72
0
 11
624.140449948571
 21
-10
 31
0
100
AcDbText
 73
3
  0
TEXT
  5
132
100
AcDbEntity
  8
0
420
16711680
100
AcDbText
 10
710.357242405166
 20
-50
 30
0
 40
20
  1
42.74%
 50
0
 41
1
 72
0
 11
710.357242405166
 21
-50
 31
0
100
AcDbText
 73
3
  0
TEXT
  5
133
100
AcDbEntity
  8
0
420
16711680
100
AcDbText
 10
710.357242405166
 20
-90
 30
0
 40
20
  1
56.46%
 50
0
 41
1
 72
0
 11
710.357242405166
 21
-90
 31
0
100
AcDbText
 73
3
  0
TEXT
  5
134
100
AcDbEntity
  8
0
420
16711680
100
AcDbText
 10
723.621364321565
 20
-130
 30
0
 40
20
  1
0.80%
 50
0
 41
1
 72
0
 11
723.621364321565
 21
-130
 31
0
100
AcDbText
 73
3
  0
TEXT
  5
135
100
AcDbEntity
  8
0
420
16711680
100
AcDbText
 10
697.093120488767
 20
-180
 30
0
 40
20
  1
100.00%
 50
0
 41
1
 72
0
 11
697.093120488767
 21
-180
 31
0
100
AcDbText
 73
3
  0
TEXT
  5
136
100
AcDbEntity
  8
0
420
16711680
100
AcDbText
 10
189.429005810293
 20
40
 30
0
 40
30
  1
Lokaal categorie groep
 50
0
 41
1
 39
2
 72
0
 11
189.429005810293
 21
40
 31
0
100
AcDbText
 73
3
  0
ENDBLK
  5
111
100
AcDbEntity
100
AcDbBlockEnd
  0
BLOCK
  5
13A
100
AcDbEntity
100
AcDbBlockBegin
  2
$TITLE_BLOCK
 70
0
 10
0
 20
0
 30
0
  0
LWPOLYLINE
  5
13C
100
AcDbEntity
  8
0
100
AcDbPolyline
 90
5
 70
1
 10
0
 20
0
 40
0
 41
0
 10
0
 20
-190
 40
0
 41
0
 10
667
 20
-190
 40
0
 41
0
 10
667
 20
0
 40
0
 41
0
 10
0
 20
0
 40
0
 41
0
  0
TEXT
  5
13D
100
AcDbEntity
  8
0
 62
7
100
AcDbText
 10
20
 20
-10
 30
0
 40
20
  1
Tekening
 50
0
 41
1
 72
0
 11
20
 21
-10
 31
0
100
AcDbText
 73
3
  0
TEXT
  5
13E
100
AcDbEntity
  8
0
 62
7
100
AcDbText
 10
20
 20
-40
 30
0
 40
20
  1
Verdieping
 50
0
 41
1
 72
0
 11
20
 21
-40
 31
0
100
AcDbText
 73
3
  0
TEXT
  5
13F
100
AcDbEntity
  8
0
 62
7
100
AcDbText
 10
20
 20
-70
 30
0
 40
20
  1
Gebouw
 50
0
 41
1
 72
0
 11
20
 21
-70
 31
0
100
AcDbText
 73
3
  0
TEXT
  5
140
100
AcDbEntity
  8
0
 62
7
100
AcDbText
 10
20
 20
-100
 30
0
 40
20
  1
Site
 50
0
 41
1
 72
0
 11
20
 21
-100
 31
0
100
AcDbText
 73
3
  0
TEXT
  5
141
100
AcDbEntity
  8
0
 62
7
100
AcDbText
 10
20
 20
-130
 30
0
 40
20
  1
Regio
 50
0
 41
1
 72
0
 11
20
 21
-130
 31
0
100
AcDbText
 73
3
  0
TEXT
  5
142
100
AcDbEntity
  8
0
 62
7
100
AcDbText
 10
20
 20
-160
 30
0
 40
20
  1
Vastgoedeenheid
 50
0
 41
1
 72
0
 11
20
 21
-160
 31
0
100
AcDbText
 73
3
  0
LINE
  5
143
100
AcDbEntity
  8
0
100
AcDbLine
 10
0
 20
-35
 30
0
 11
250
 21
-35
 31
0
  0
LINE
  5
144
100
AcDbEntity
  8
0
100
AcDbLine
 10
0
 20
-65
 30
0
 11
250
 21
-65
 31
0
  0
LINE
  5
145
100
AcDbEntity
  8
0
100
AcDbLine
 10
0
 20
-95
 30
0
 11
250
 21
-95
 31
0
  0
LINE
  5
146
100
AcDbEntity
  8
0
100
AcDbLine
 10
0
 20
-125
 30
0
 11
250
 21
-125
 31
0
  0
LINE
  5
147
100
AcDbEntity
  8
0
100
AcDbLine
 10
0
 20
-155
 30
0
 11
250
 21
-155
 31
0
  0
TEXT
  5
148
100
AcDbEntity
  8
0
 62
7
100
AcDbText
 10
270
 20
-10
 30
0
 40
20
  1
31202G04 V0
 50
0
 41
1
 72
0
 11
270
 21
-10
 31
0
100
AcDbText
 73
3
  0
TEXT
  5
149
100
AcDbEntity
  8
0
 62
7
100
AcDbText
 10
270
 20
-40
 30
0
 40
20
  1
31202G04 V0
 50
0
 41
1
 72
0
 11
270
 21
-40
 31
0
100
AcDbText
 73
3
  0
TEXT
  5
14A
100
AcDbEntity
  8
0
 62
7
100
AcDbText
 10
270
 20
-70
 30
0
 40
20
  1
31202G04
 50
0
 41
1
 72
0
 11
270
 21
-70
 31
0
100
AcDbText
 73
3
  0
TEXT
  5
14B
100
AcDbEntity
  8
0
 62
7
100
AcDbText
 10
270
 20
-100
 30
0
 40
20
  1
BRASSCHAAT Lage Kaart 538
 50
0
 41
1
 72
0
 11
270
 21
-100
 31
0
100
AcDbText
 73
3
  0
TEXT
  5
14C
100
AcDbEntity
  8
0
 62
7
100
AcDbText
 10
270
 20
-130
 30
0
 40
20
  1
SGR 03 INVENTO
 50
0
 41
1
 72
0
 11
270
 21
-130
 31
0
100
AcDbText
 73
3
  0
TEXT
  5
14D
100
AcDbEntity
  8
0
 62
7
100
AcDbText
 10
270
 20
-160
 30
0
 40
20
  1

 50
0
 41
1
 72
0
 11
270
 21
-160
 31
0
100
AcDbText
 73
3
  0
LINE
  5
14E
100
AcDbEntity
  8
0
100
AcDbLine
 10
250
 20
-35
 30
0
 11
667
 21
-35
 31
0
  0
LINE
  5
14F
100
AcDbEntity
  8
0
100
AcDbLine
 10
250
 20
-65
 30
0
 11
667
 21
-65
 31
0
  0
LINE
  5
150
100
AcDbEntity
  8
0
100
AcDbLine
 10
250
 20
-95
 30
0
 11
667
 21
-95
 31
0
  0
LINE
  5
151
100
AcDbEntity
  8
0
100
AcDbLine
 10
250
 20
-125
 30
0
 11
667
 21
-125
 31
0
  0
LINE
  5
152
100
AcDbEntity
  8
0
100
AcDbLine
 10
250
 20
-155
 30
0
 11
667
 21
-155
 31
0
  0
LINE
  5
153
100
AcDbEntity
  8
0
100
AcDbLine
 10
250
 20
0
 30
0
 11
250
 21
-190
 31
0
  0
ENDBLK
  5
13B
100
AcDbEntity
100
AcDbBlockEnd
  0
BLOCK
  5
159
100
AcDbEntity
100
AcDbBlockBegin
  2
*Model_Space
 70
1
 10
0
 20
0
 30
0
  0
ENDBLK
  5
15A
100
AcDbEntity
100
AcDbBlockEnd
  0
BLOCK
  5
15C
100
AcDbEntity
100
AcDbBlockBegin
  2
*Paper_Space
 70
1
 10
0
 20
0
 30
0
  0
ENDBLK
  5
15D
100
AcDbEntity
100
AcDbBlockEnd
  0
ENDSEC
  0
SECTION
  2
ENTITIES
  0
HATCH
  5
67
100
AcDbEntity
  8
090_MAPPING_Lokaal categorie groep
420
12510413
100
AcDbHatch
 10
0.0
 20
0.0
 30
0.0
210
0.0
220
0.0
230
1.0
  2
SOLID
 70
1
 71
0
 91
1
 92
22
 72
1
 73
1
 93
14
 10
158873.994900003
 20
222439.884100001
 42
0
 10
158870.642099999
 20
222444.953899998
 42
0
 10
158870.131300002
 20
222445.726300001
 42
0
 10
158866.072300002
 20
222451.863699999
 42
0
 10
158865.5515
 20
222452.651299998
 42
0
 10
158864.860100001
 20
222453.6965
 42
0
 10
158865.012500003
 20
222453.798300002
 42
0
 10
158866.5471
 20
222454.822299998
 42
0
 10
158866.707699999
 20
222454.929299999
 42
0
 10
158874.557499997
 20
222443.067299999
 42
0
 10
158874.881499998
 20
222443.261700001
 42
0
 10
158876.107900001
 20
222441.410300002
 42
0
 10
158875.786700003
 20
222441.2097
 42
0
 10
158875.861500002
 20
222441.096700002
 42
0
 97
0
 75
1
 76
1
 47
0.0
 98
1
 10
0.0
 20
0.0
  0
LWPOLYLINE
  5
68
100
AcDbEntity
  8
090_MAPPING_Lokaal categorie groep
100
AcDbPolyline
 90
15
 70
0
 10
158873.994900003
 20
222439.884100001
 40
0
 41
0
 10
158870.642099999
 20
222444.953899998
 40
0
 41
0
 10
158870.131300002
 20
222445.726300001
 40
0
 41
0
 10
158866.072300002
 20
222451.863699999
 40
0
 41
0
 10
158865.5515
 20
222452.651299998
 40
0
 41
0
 10
158864.860100001
 20
222453.6965
 40
0
 41
0
 10
158865.012500003
 20
222453.798300002
 40
0
 41
0
 10
158866.5471
 20
222454.822299998
 40
0
 41
0
 10
158866.707699999
 20
222454.929299999
 40
0
 41
0
 10
158874.557499997
 20
222443.067299999
 40
0
 41
0
 10
158874.881499998
 20
222443.261700001
 40
0
 41
0
 10
158876.107900001
 20
222441.410300002
 40
0
 41
0
 10
158875.786700003
 20
222441.2097
 40
0
 41
0
 10
158875.861500002
 20
222441.096700002
 40
0
 41
0
 10
158873.994900003
 20
222439.884100001
 40
0
 41
0
  0
HATCH
  5
69
100
AcDbEntity
  8
090_MAPPING_Lokaal categorie groep
420
12510413
100
AcDbHatch
 10
0.0
 20
0.0
 30
0.0
210
0.0
220
0.0
230
1.0
  2
SOLID
 70
1
 71
0
 91
1
 92
22
 72
1
 73
1
 93
7
 10
158882.021300003
 20
222437.360300001
 42
0
 10
158881.936099999
 20
222437.3039
 42
0
 10
158879.775700003
 20
222435.872900002
 42
0
 10
158876.107900001
 20
222441.410300002
 42
0
 10
158874.881499998
 20
222443.261700001
 42
0
 10
158874.8257
 20
222443.346099999
 42
0
 10
158877.0713
 20
222444.833500002
 42
0
 97
0
 75
1
 76
1
 47
0.0
 98
1
 10
0.0
 20
0.0
  0
LWPOLYLINE
  5
6A
100
AcDbEntity
  8
090_MAPPING_Lokaal categorie groep
100
AcDbPolyline
 90
8
 70
0
 10
158882.021300003
 20
222437.360300001
 40
0
 41
0
 10
158881.936099999
 20
222437.3039
 40
0
 41
0
 10
158879.775700003
 20
222435.872900002
 40
0
 41
0
 10
158876.107900001
 20
222441.410300002
 40
0
 41
0
 10
158874.881499998
 20
222443.261700001
 40
0
 41
0
 10
158874.8257
 20
222443.346099999
 40
0
 41
0
 10
158877.0713
 20
222444.833500002
 40
0
 41
0
 10
158882.021300003
 20
222437.360300001
 40
0
 41
0
  0
HATCH
  5
6B
100
AcDbEntity
  8
090_MAPPING_Lokaal categorie groep
420
12510413
100
AcDbHatch
 10
0.0
 20
0.0
 30
0.0
210
0.0
220
0.0
230
1.0
  2
SOLID
 70
1
 71
0
 91
1
 92
22
 72
1
 73
1
 93
40
 10
158852.127300002
 20
222465.995299999
 42
0
 10
158855.166699998
 20
222468.000700001
 42
0
 10
158855.7315
 20
222467.126899999
 42
0
 10
158855.912100002
 20
222467.2423
 42
0
 10
158855.311899997
 20
222468.170899998
 42
0
 10
158857.141500004
 20
222469.377700001
 42
0
 10
158860.716499999
 20
222463.967900001
 42
0
 10
158861.3649
 20
222462.986699998
 42
0
 10
158861.840700001
 20
222462.2665
 42
0
 10
158862.141900003
 20
222462.465500001
 42
0
 10
158863.2597
 20
222460.770100001
 42
0
 10
158862.960299999
 20
222460.572099999
 42
0
 10
158866.523900002
 20
222455.179699998
 42
0
 10
158866.362300001
 20
222455.085900001
 42
0
 10
158866.5471
 20
222454.822299998
 42
0
 10
158865.012500003
 20
222453.798300002
 42
0
 10
158864.835900001
 20
222454.065699998
 42
0
 10
158864.685699999
 20
222453.966699999
 42
0
 10
158863.7711
 20
222455.358899999
 42
0
 10
158863.6985
 20
222455.3057
 42
0
 10
158863.661899999
 20
222455.361099999
 42
0
 10
158862.747699998
 20
222456.7423
 42
0
 10
158860.1633
 20
222460.646899998
 42
0
 10
158860.241300002
 20
222460.697900001
 42
0
 10
158859.594899997
 20
222461.666499998
 42
0
 10
158859.413900003
 20
222461.559700001
 42
0
 10
158859.698299997
 20
222461.116300002
 42
0
 10
158853.857500002
 20
222457.267499998
 42
0
 10
158853.586099997
 20
222457.686099999
 42
0
 10
158853.603500001
 20
222457.695900001
 42
0
 10
158853.526900001
 20
222457.812100001
 42
0
 10
158853.212300003
 20
222457.598299999
 42
0
 10
158852.522100002
 20
222458.6395
 42
0
 10
158852.769900002
 20
222458.8039
 42
0
 10
158852.752300002
 20
222458.8279
 42
0
 10
158853.965300001
 20
222459.622299999
 42
0
 10
158853.910099998
 20
222459.706099998
 42
0
 10
158854.611100003
 20
222460.168299999
 42
0
 10
158854.666100003
 20
222460.084899999
 42
0
 10
158855.634300001
 20
222460.723900002
 42
0
 97
0
 75
1
 76
1
 47
0.0
 98
1
 10
0.0
 20
0.0
  0
LWPOLYLINE
  5
6C
100
AcDbEntity
  8
090_MAPPING_Lokaal categorie groep
100
AcDbPolyline
 90
41
 70
0
 10
158852.127300002
 20
222465.995299999
 40
0
 41
0
 10
158855.166699998
 20
222468.000700001
 40
0
 41
0
 10
158855.7315
 20
222467.126899999
 40
0
 41
0
 10
158855.912100002
 20
222467.2423
 40
0
 41
0
 10
158855.311899997
 20
222468.170899998
 40
0
 41
0
 10
158857.141500004
 20
222469.377700001
 40
0
 41
0
 10
158860.716499999
 20
222463.967900001
 40
0
 41
0
 10
158861.3649
 20
222462.986699998
 40
0
 41
0
 10
158861.840700001
 20
222462.2665
 40
0
 41
0
 10
158862.141900003
 20
222462.465500001
 40
0
 41
0
 10
158863.2597
 20
222460.770100001
 40
0
 41
0
 10
158862.960299999
 20
222460.572099999
 40
0
 41
0
 10
158866.523900002
 20
222455.179699998
 40
0
 41
0
 10
158866.362300001
 20
222455.085900001
 40
0
 41
0
 10
158866.5471
 20
222454.822299998
 40
0
 41
0
 10
158865.012500003
 20
222453.798300002
 40
0
 41
0
 10
158864.835900001
 20
222454.065699998
 40
0
 41
0
 10
158864.685699999
 20
222453.966699999
 40
0
 41
0
 10
158863.7711
 20
222455.358899999
 40
0
 41
0
 10
158863.6985
 20
222455.3057
 40
0
 41
0
 10
158863.661899999
 20
222455.361099999
 40
0
 41
0
 10
158862.747699998
 20
222456.7423
 40
0
 41
0
 10
158860.1633
 20
222460.646899998
 40
0
 41
0
 10
158860.241300002
 20
222460.697900001
 40
0
 41
0
 10
158859.594899997
 20
222461.666499998
 40
0
 41
0
 10
158859.413900003
 20
222461.559700001
 40
0
 41
0
 10
158859.698299997
 20
222461.116300002
 40
0
 41
0
 10
158853.857500002
 20
222457.267499998
 40
0
 41
0
 10
158853.586099997
 20
222457.686099999
 40
0
 41
0
 10
158853.603500001
 20
222457.695900001
 40
0
 41
0
 10
158853.526900001
 20
222457.812100001
 40
0
 41
0
 10
158853.212300003
 20
222457.598299999
 40
0
 41
0
 10
158852.522100002
 20
222458.6395
 40
0
 41
0
 10
158852.769900002
 20
222458.8039
 40
0
 41
0
 10
158852.752300002
 20
222458.8279
 40
0
 41
0
 10
158853.965300001
 20
222459.622299999
 40
0
 41
0
 10
158853.910099998
 20
222459.706099998
 40
0
 41
0
 10
158854.611100003
 20
222460.168299999
 40
0
 41
0
 10
158854.666100003
 20
222460.084899999
 40
0
 41
0
 10
158855.634300001
 20
222460.723900002
 40
0
 41
0
 10
158852.127300002
 20
222465.995299999
 40
0
 41
0
  0
HATCH
  5
6D
100
AcDbEntity
  8
090_MAPPING_Lokaal categorie groep
420
12713983
100
AcDbHatch
 10
0.0
 20
0.0
 30
0.0
210
0.0
220
0.0
230
1.0
  2
SOLID
 70
1
 71
0
 91
1
 92
22
 72
1
 73
1
 93
12
 10
158855.4925
 20
222460.749299999
 42
0
 10
158854.611100003
 20
222460.168299999
 42
0
 10
158853.910099998
 20
222459.706099998
 42
0
 10
158852.7773
 20
222458.959100001
 42
0
 10
158852.7355
 20
222458.994100001
 42
0
 10
158852.294299997
 20
222459.677900001
 42
0
 10
158849.322700001
 20
222464.142900001
 42
0
 10
158851.206900001
 20
222465.393300001
 42
0
 10
158851.894500002
 20
222464.352699999
 42
0
 10
158852.359499998
 20
222463.648899999
 42
0
 10
158852.766500004
 20
222463.032699999
 42
0
 10
158853.612499997
 20
222463.6171
 42
0
 97
0
 75
1
 76
1
 47
0.0
 98
1
 10
0.0
 20
0.0
  0
LWPOLYLINE
  5
6E
100
AcDbEntity
  8
090_MAPPING_Lokaal categorie groep
100
AcDbPolyline
 90
13
 70
0
 10
158855.4925
 20
222460.749299999
 40
0
 41
0
 10
158854.611100003
 20
222460.168299999
 40
0
 41
0
 10
158853.910099998
 20
222459.706099998
 40
0
 41
0
 10
158852.7773
 20
222458.959100001
 40
0
 41
0
 10
158852.7355
 20
222458.994100001
 40
0
 41
0
 10
158852.294299997
 20
222459.677900001
 40
0
 41
0
 10
158849.322700001
 20
222464.142900001
 40
0
 41
0
 10
158851.206900001
 20
222465.393300001
 40
0
 41
0
 10
158851.894500002
 20
222464.352699999
 40
0
 41
0
 10
158852.359499998
 20
222463.648899999
 40
0
 41
0
 10
158852.766500004
 20
222463.032699999
 40
0
 41
0
 10
158853.612499997
 20
222463.6171
 40
0
 41
0
 10
158855.4925
 20
222460.749299999
 40
0
 41
0
  0
HATCH
  5
6F
100
AcDbEntity
  8
090_MAPPING_Lokaal categorie groep
420
12713983
100
AcDbHatch
 10
0.0
 20
0.0
 30
0.0
210
0.0
220
0.0
230
1.0
  2
SOLID
 70
1
 71
0
 91
3
 92
22
 72
1
 73
1
 93
24
 10
158863.263099998
 20
222443.0669
 42
0
 10
158859.133500002
 20
222449.279100001
 42
0
 10
158860.209299997
 20
222449.987300001
 42
0
 10
158859.924500004
 20
222450.4221
 42
0
 10
158863.653099999
 20
222452.916499998
 42
0
 10
158863.943700001
 20
222452.445900001
 42
0
 10
158864.993900001
 20
222453.1373
 42
0
 10
158865.3869
 20
222452.5425
 42
0
 10
158865.5515
 20
222452.651299998
 42
0
 10
158866.072300002
 20
222451.863699999
 42
0
 10
158865.907300003
 20
222451.754900001
 42
0
 10
158869.0889
 20
222446.9395
 42
0
 10
158868.015100002
 20
222446.225699998
 42
0
 10
158868.155900002
 20
222446.002900001
 42
0
 10
158864.4573
 20
222443.550299998
 42
0
 10
158864.300099999
 20
222443.7733
 42
0
 10
158864.220899999
 20
222443.719500002
 42
0
 10
158864.528700002
 20
222443.256499998
 42
0
 10
158864.425700001
 20
222443.190699998
 42
0
 10
158864.4815
 20
222443.103500001
 42
0
 10
158863.792499997
 20
222442.648699999
 42
0
 10
158863.730099998
 20
222442.746300001
 42
0
 10
158863.694499999
 20
222442.723700002
 42
0
 10
158863.427699998
 20
222443.179099999
 42
0
 97
0
 92
7
 72
1
 73
1
 93
11
 10
158861.724507425
 20
222451.626288841
 42
0
 10
158861.766508508
 20
222451.654387189
 42
0
 10
158861.808509592
 20
222451.682485538
 42
0
 10
158863.762100004
 20
222448.737300001
 42
0
 10
158865.813699998
 20
222450.085499998
 42
0
 10
158864.629900001
 20
222451.826699998
 42
0
 10
158864.715099998
 20
222451.8825
 42
0
 10
158865.954300001
 20
222450.063499998
 42
0
 10
158861.628300004
 20
222447.2207
 42
0
 10
158861.575900003
 20
222447.300500002
 42
0
 10
158863.681699999
 20
222448.684300002
 42
0
 97
0
 92
7
 72
1
 73
1
 93
12
 10
158866.306747983
 20
222444.776698128
 42
0
 10
158866.286841791
 20
222444.763498018
 42
0
 10
158866.266935599
 20
222444.750297908
 42
0
 10
158864.227899998
 20
222447.853100002
 42
0
 10
158862.1325
 20
222446.476100002
 42
0
 10
158862.081500001
 20
222446.558499999
 42
0
 10
158866.389300004
 20
222449.401500002
 42
0
 10
158867.062700003
 20
222448.376899999
 42
0
 10
158866.9727
 20
222448.321899999
 42
0
 10
158866.360100001
 20
222449.254099999
 42
0
 10
158864.308300003
 20
222447.905900002
 42
0
 10
158866.344700001
 20
222444.807100002
 42
0
 97
0
 75
1
 76
1
 47
0.0
 98
1
 10
0.0
 20
0.0
  0
LWPOLYLINE
  5
70
100
AcDbEntity
  8
090_MAPPING_Lokaal categorie groep
100
AcDbPolyline
 90
25
 70
0
 10
158863.263099998
 20
222443.0669
 40
0
 41
0
 10
158859.133500002
 20
222449.279100001
 40
0
 41
0
 10
158860.209299997
 20
222449.987300001
 40
0
 41
0
 10
158859.924500004
 20
222450.4221
 40
0
 41
0
 10
158863.653099999
 20
222452.916499998
 40
0
 41
0
 10
158863.943700001
 20
222452.445900001
 40
0
 41
0
 10
158864.993900001
 20
222453.1373
 40
0
 41
0
 10
158865.3869
 20
222452.5425
 40
0
 41
0
 10
158865.5515
 20
222452.651299998
 40
0
 41
0
 10
158866.072300002
 20
222451.863699999
 40
0
 41
0
 10
158865.907300003
 20
222451.754900001
 40
0
 41
0
 10
158869.0889
 20
222446.9395
 40
0
 41
0
 10
158868.015100002
 20
222446.225699998
 40
0
 41
0
 10
158868.155900002
 20
222446.002900001
 40
0
 41
0
 10
158864.4573
 20
222443.550299998
 40
0
 41
0
 10
158864.300099999
 20
222443.7733
 40
0
 41
0
 10
158864.220899999
 20
222443.719500002
 40
0
 41
0
 10
158864.528700002
 20
222443.256499998
 40
0
 41
0
 10
158864.425700001
 20
222443.190699998
 40
0
 41
0
 10
158864.4815
 20
222443.103500001
 40
0
 41
0
 10
158863.792499997
 20
222442.648699999
 40
0
 41
0
 10
158863.730099998
 20
222442.746300001
 40
0
 41
0
 10
158863.694499999
 20
222442.723700002
 40
0
 41
0
 10
158863.427699998
 20
222443.179099999
 40
0
 41
0
 10
158863.263099998
 20
222443.0669
 40
0
 41
0
  0
LWPOLYLINE
  5
71
100
AcDbEntity
  8
090_MAPPING_Lokaal categorie groep
100
AcDbPolyline
 90
12
 70
0
 10
158861.724507425
 20
222451.626288841
 40
0
 41
0
 10
158861.766508508
 20
222451.654387189
 40
0
 41
0
 10
158861.808509592
 20
222451.682485538
 40
0
 41
0
 10
158863.762100004
 20
222448.737300001
 40
0
 41
0
 10
158865.813699998
 20
222450.085499998
 40
0
 41
0
 10
158864.629900001
 20
222451.826699998
 40
0
 41
0
 10
158864.715099998
 20
222451.8825
 40
0
 41
0
 10
158865.954300001
 20
222450.063499998
 40
0
 41
0
 10
158861.628300004
 20
222447.2207
 40
0
 41
0
 10
158861.575900003
 20
222447.300500002
 40
0
 41
0
 10
158863.681699999
 20
222448.684300002
 40
0
 41
0
 10
158861.724507425
 20
222451.626288841
 40
0
 41
0
  0
LWPOLYLINE
  5
72
100
AcDbEntity
  8
090_MAPPING_Lokaal categorie groep
100
AcDbPolyline
 90
13
 70
0
 10
158866.306747983
 20
222444.776698128
 40
0
 41
0
 10
158866.286841791
 20
222444.763498018
 40
0
 41
0
 10
158866.266935599
 20
222444.750297908
 40
0
 41
0
 10
158864.227899998
 20
222447.853100002
 40
0
 41
0
 10
158862.1325
 20
222446.476100002
 40
0
 41
0
 10
158862.081500001
 20
222446.558499999
 40
0
 41
0
 10
158866.389300004
 20
222449.401500002
 40
0
 41
0
 10
158867.062700003
 20
222448.376899999
 40
0
 41
0
 10
158866.9727
 20
222448.321899999
 40
0
 41
0
 10
158866.360100001
 20
222449.254099999
 40
0
 41
0
 10
158864.308300003
 20
222447.905900002
 40
0
 41
0
 10
158866.344700001
 20
222444.807100002
 40
0
 41
0
 10
158866.306747983
 20
222444.776698128
 40
0
 41
0
  0
HATCH
  5
73
100
AcDbEntity
  8
090_MAPPING_Lokaal categorie groep
420
12713983
100
AcDbHatch
 10
0.0
 20
0.0
 30
0.0
210
0.0
220
0.0
230
1.0
  2
SOLID
 70
1
 71
0
 91
3
 92
22
 72
1
 73
1
 93
18
 10
158869.460900001
 20
222446.390099999
 42
0
 10
158869.969499998
 20
222445.6195
 42
0
 10
158870.131300002
 20
222445.726300001
 42
0
 10
158870.642099999
 20
222444.953899998
 42
0
 10
158870.479500003
 20
222444.846700002
 42
0
 10
158873.545299999
 20
222440.201699998
 42
0
 10
158872.478699997
 20
222439.497699998
 42
0
 10
158872.748099998
 20
222439.0427
 42
0
 10
158869.068099998
 20
222436.603900001
 42
0
 10
158868.733900003
 20
222437.026299998
 42
0
 10
158867.708300002
 20
222436.349500001
 42
0
 10
158863.6241
 20
222442.537700001
 42
0
 10
158863.792499997
 20
222442.648699999
 42
0
 10
158864.4815
 20
222443.103500001
 42
0
 10
158864.670299999
 20
222443.228300002
 42
0
 10
158864.520099998
 20
222443.463300001
 42
0
 10
158868.252700001
 20
222445.937100001
 42
0
 10
158868.413900003
 20
222445.697700001
 42
0
 97
0
 92
7
 72
1
 73
1
 93
12
 10
158866.347298234
 20
222444.674285103
 42
0
 10
158866.363193773
 20
222444.684819954
 42
0
 10
158866.379089312
 20
222444.695354805
 42
0
 10
158866.438500002
 20
222444.7271
 42
0
 10
158868.392700002
 20
222441.778900001
 42
0
 10
158870.437899999
 20
222443.134500001
 42
0
 10
158869.112300001
 20
222445.134300001
 42
0
 10
158869.193099998
 20
222445.187899999
 42
0
 10
158870.576700002
 20
222443.100499999
 42
0
 10
158866.261299998
 20
222440.236900002
 42
0
 10
158866.201899998
 20
222440.326499999
 42
0
 10
158868.304899998
 20
222441.7207
 42
0
 97
0
 92
7
 72
1
 73
1
 93
10
 10
158870.982132801
 20
222437.872362827
 42
0
 10
158870.946426898
 20
222437.848699904
 42
0
 10
158870.910720995
 20
222437.825036981
 42
0
 10
158870.894100003
 20
222437.8147
 42
0
 10
158868.862300001
 20
222440.880100001
 42
0
 10
158866.759099998
 20
222439.4859
 42
0
 10
158866.705499999
 20
222439.5667
 42
0
 10
158871.022500001
 20
222442.428100001
 42
0
 10
158871.075900003
 20
222442.3475
 42
0
 10
158868.950099997
 20
222440.938299999
 42
0
 97
0
 75
1
 76
1
 47
0.0
 98
1
 10
0.0
 20
0.0
  0
LWPOLYLINE
  5
74
100
AcDbEntity
  8
090_MAPPING_Lokaal categorie groep
100
AcDbPolyline
 90
19
 70
0
 10
158869.460900001
 20
222446.390099999
 40
0
 41
0
 10
158869.969499998
 20
222445.6195
 40
0
 41
0
 10
158870.131300002
 20
222445.726300001
 40
0
 41
0
 10
158870.642099999
 20
222444.953899998
 40
0
 41
0
 10
158870.479500003
 20
222444.846700002
 40
0
 41
0
 10
158873.545299999
 20
222440.201699998
 40
0
 41
0
 10
158872.478699997
 20
222439.497699998
 40
0
 41
0
 10
158872.748099998
 20
222439.0427
 40
0
 41
0
 10
158869.068099998
 20
222436.603900001
 40
0
 41
0
 10
158868.733900003
 20
222437.026299998
 40
0
 41
0
 10
158867.708300002
 20
222436.349500001
 40
0
 41
0
 10
158863.6241
 20
222442.537700001
 40
0
 41
0
 10
158863.792499997
 20
222442.648699999
 40
0
 41
0
 10
158864.4815
 20
222443.103500001
 40
0
 41
0
 10
158864.670299999
 20
222443.228300002
 40
0
 41
0
 10
158864.520099998
 20
222443.463300001
 40
0
 41
0
 10
158868.252700001
 20
222445.937100001
 40
0
 41
0
 10
158868.413900003
 20
222445.697700001
 40
0
 41
0
 10
158869.460900001
 20
222446.390099999
 40
0
 41
0
  0
LWPOLYLINE
  5
75
100
AcDbEntity
  8
090_MAPPING_Lokaal categorie groep
100
AcDbPolyline
 90
13
 70
0
 10
158866.347298234
 20
222444.674285103
 40
0
 41
0
 10
158866.363193773
 20
222444.684819954
 40
0
 41
0
 10
158866.379089312
 20
222444.695354805
 40
0
 41
0
 10
158866.438500002
 20
222444.7271
 40
0
 41
0
 10
158868.392700002
 20
222441.778900001
 40
0
 41
0
 10
158870.437899999
 20
222443.134500001
 40
0
 41
0
 10
158869.112300001
 20
222445.134300001
 40
0
 41
0
 10
158869.193099998
 20
222445.187899999
 40
0
 41
0
 10
158870.576700002
 20
222443.100499999
 40
0
 41
0
 10
158866.261299998
 20
222440.236900002
 40
0
 41
0
 10
158866.201899998
 20
222440.326499999
 40
0
 41
0
 10
158868.304899998
 20
222441.7207
 40
0
 41
0
 10
158866.347298234
 20
222444.674285103
 40
0
 41
0
  0
LWPOLYLINE
  5
76
100
AcDbEntity
  8
090_MAPPING_Lokaal categorie groep
100
AcDbPolyline
 90
11
 70
0
 10
158870.982132801
 20
222437.872362827
 40
0
 41
0
 10
158870.946426898
 20
222437.848699904
 40
0
 41
0
 10
158870.910720995
 20
222437.825036981
 40
0
 41
0
 10
158870.894100003
 20
222437.8147
 40
0
 41
0
 10
158868.862300001
 20
222440.880100001
 40
0
 41
0
 10
158866.759099998
 20
222439.4859
 40
0
 41
0
 10
158866.705499999
 20
222439.5667
 40
0
 41
0
 10
158871.022500001
 20
222442.428100001
 40
0
 41
0
 10
158871.075900003
 20
222442.3475
 40
0
 41
0
 10
158868.950099997
 20
222440.938299999
 40
0
 41
0
 10
158870.982132801
 20
222437.872362827
 40
0
 41
0
  0
HATCH
  5
77
100
AcDbEntity
  8
090_MAPPING_Lokaal categorie groep
420
12713983
100
AcDbHatch
 10
0.0
 20
0.0
 30
0.0
210
0.0
220
0.0
230
1.0
  2
SOLID
 70
1
 71
0
 91
3
 92
22
 72
1
 73
1
 93
10
 10
158864.530500002
 20
222453.8585
 42
0
 10
158858.683300003
 20
222449.9859
 42
0
 10
158857.874899998
 20
222451.204500001
 42
0
 10
158855.499300003
 20
222454.785100002
 42
0
 10
158853.916500002
 20
222457.170499999
 42
0
 10
158859.754900001
 20
222461.020100001
 42
0
 10
158862.651299998
 20
222456.6787
 42
0
 10
158862.747699998
 20
222456.7423
 42
0
 10
158863.661899999
 20
222455.361099999
 42
0
 10
158863.563100003
 20
222455.295699999
 42
0
 97
0
 92
7
 72
1
 73
1
 93
10
 10
158856.855801837
 20
222459.108554321
 42
0
 10
158856.882169354
 20
222459.125939974
 42
0
 10
158856.908536872
 20
222459.143325627
 42
0
 10
158856.938900001
 20
222459.1613
 42
0
 10
158858.930299997
 20
222456.182700001
 42
0
 10
158860.886299998
 20
222457.490499999
 42
0
 10
158860.946099997
 20
222457.401099999
 42
0
 10
158856.794500001
 20
222454.633499999
 42
0
 10
158856.738300003
 20
222454.717300002
 42
0
 10
158858.848300003
 20
222456.1281
 42
0
 97
0
 92
7
 72
1
 73
1
 93
12
 10
158861.704296325
 20
222451.986705575
 42
0
 10
158861.66057001
 20
222451.957745641
 42
0
 10
158861.616843696
 20
222451.928785707
 42
0
 10
158859.416299999
 20
222455.278700002
 42
0
 10
158857.306299999
 20
222453.867899999
 42
0
 10
158857.251100004
 20
222453.9505
 42
0
 10
158861.399099998
 20
222456.723700002
 42
0
 10
158861.454300001
 20
222456.641100001
 42
0
 10
158862.184100002
 20
222455.548900001
 42
0
 10
158862.087499999
 20
222455.488299999
 42
0
 10
158861.358499996
 20
222456.578699999
 42
0
 10
158859.498099998
 20
222455.333500002
 42
0
 97
0
 75
1
 76
1
 47
0.0
 98
1
 10
0.0
 20
0.0
  0
LWPOLYLINE
  5
78
100
AcDbEntity
  8
090_MAPPING_Lokaal categorie groep
100
AcDbPolyline
 90
11
 70
0
 10
158864.530500002
 20
222453.8585
 40
0
 41
0
 10
158858.683300003
 20
222449.9859
 40
0
 41
0
 10
158857.874899998
 20
222451.204500001
 40
0
 41
0
 10
158855.499300003
 20
222454.785100002
 40
0
 41
0
 10
158853.916500002
 20
222457.170499999
 40
0
 41
0
 10
158859.754900001
 20
222461.020100001
 40
0
 41
0
 10
158862.651299998
 20
222456.6787
 40
0
 41
0
 10
158862.747699998
 20
222456.7423
 40
0
 41
0
 10
158863.661899999
 20
222455.361099999
 40
0
 41
0
 10
158863.563100003
 20
222455.295699999
 40
0
 41
0
 10
158864.530500002
 20
222453.8585
 40
0
 41
0
  0
LWPOLYLINE
  5
79
100
AcDbEntity
  8
090_MAPPING_Lokaal categorie groep
100
AcDbPolyline
 90
11
 70
0
 10
158856.855801837
 20
222459.108554321
 40
0
 41
0
 10
158856.882169354
 20
222459.125939974
 40
0
 41
0
 10
158856.908536872
 20
222459.143325627
 40
0
 41
0
 10
158856.938900001
 20
222459.1613
 40
0
 41
0
 10
158858.930299997
 20
222456.182700001
 40
0
 41
0
 10
158860.886299998
 20
222457.490499999
 40
0
 41
0
 10
158860.946099997
 20
222457.401099999
 40
0
 41
0
 10
158856.794500001
 20
222454.633499999
 40
0
 41
0
 10
158856.738300003
 20
222454.717300002
 40
0
 41
0
 10
158858.848300003
 20
222456.1281
 40
0
 41
0
 10
158856.855801837
 20
222459.108554321
 40
0
 41
0
  0
LWPOLYLINE
  5
7A
100
AcDbEntity
  8
090_MAPPING_Lokaal categorie groep
100
AcDbPolyline
 90
13
 70
0
 10
158861.704296325
 20
222451.986705575
 40
0
 41
0
 10
158861.66057001
 20
222451.957745641
 40
0
 41
0
 10
158861.616843696
 20
222451.928785707
 40
0
 41
0
 10
158859.416299999
 20
222455.278700002
 40
0
 41
0
 10
158857.306299999
 20
222453.867899999
 40
0
 41
0
 10
158857.251100004
 20
222453.9505
 40
0
 41
0
 10
158861.399099998
 20
222456.723700002
 40
0
 41
0
 10
158861.454300001
 20
222456.641100001
 40
0
 41
0
 10
158862.184100002
 20
222455.548900001
 40
0
 41
0
 10
158862.087499999
 20
222455.488299999
 40
0
 41
0
 10
158861.358499996
 20
222456.578699999
 40
0
 41
0
 10
158859.498099998
 20
222455.333500002
 40
0
 41
0
 10
158861.704296325
 20
222451.986705575
 40
0
 41
0
  0
HATCH
  5
7B
100
AcDbEntity
  8
090_MAPPING_Lokaal categorie groep
420
16761312
100
AcDbHatch
 10
0.0
 20
0.0
 30
0.0
210
0.0
220
0.0
230
1.0
  2
SOLID
 70
1
 71
0
 91
1
 92
22
 72
1
 73
1
 93
8
 10
158851.289700002
 20
222465.440699998
 42
0
 10
158852.064900003
 20
222465.9483
 42
0
 10
158853.559900001
 20
222463.6655
 42
0
 10
158852.784900002
 20
222463.158100002
 42
0
 10
158852.432099998
 20
222463.6965
 42
0
 10
158852.359499998
 20
222463.648899999
 42
0
 10
158851.894500002
 20
222464.352699999
 42
0
 10
158851.970100001
 20
222464.402100001
 42
0
 97
0
 75
1
 76
1
 47
0.0
 98
1
 10
0.0
 20
0.0
  0
LWPOLYLINE
  5
7C
100
AcDbEntity
  8
090_MAPPING_Lokaal categorie groep
100
AcDbPolyline
 90
9
 70
0
 10
158851.289700002
 20
222465.440699998
 40
0
 41
0
 10
158852.064900003
 20
222465.9483
 40
0
 41
0
 10
158853.559900001
 20
222463.6655
 40
0
 41
0
 10
158852.784900002
 20
222463.158100002
 40
0
 41
0
 10
158852.432099998
 20
222463.6965
 40
0
 41
0
 10
158852.359499998
 20
222463.648899999
 40
0
 41
0
 10
158851.894500002
 20
222464.352699999
 40
0
 41
0
 10
158851.970100001
 20
222464.402100001
 40
0
 41
0
 10
158851.289700002
 20
222465.440699998
 40
0
 41
0
  0
LWPOLYLINE
  5
7F
100
AcDbEntity
  8
095_interne constructieoppervlakte-ICA
100
AcDbPolyline
 90
9
 70
1
 10
158856.938900001
 20
222459.1613
 40
0
 41
0
 10
158858.930299997
 20
222456.182700001
 40
0
 41
0
 10
158860.886299998
 20
222457.490499999
 40
0
 41
0
 10
158860.946099997
 20
222457.401099999
 40
0
 41
0
 10
158856.794500001
 20
222454.633499999
 40
0
 41
0
 10
158856.738300003
 20
222454.717300002
 40
0
 41
0
 10
158858.848300003
 20
222456.1281
 40
0
 41
0
 10
158856.854099996
 20
222459.111099999
 40
0
 41
0
 10
158856.938900001
 20
222459.1613
 40
0
 41
0
  0
LWPOLYLINE
  5
80
100
AcDbEntity
  8
095_interne constructieoppervlakte-ICA
100
AcDbPolyline
 90
12
 70
1
 10
158861.616899997
 20
222451.9287
 40
0
 41
0
 10
158859.416299999
 20
222455.278700002
 40
0
 41
0
 10
158857.306299999
 20
222453.867899999
 40
0
 41
0
 10
158857.251100004
 20
222453.9505
 40
0
 41
0
 10
158861.399099998
 20
222456.723700002
 40
0
 41
0
 10
158861.454300001
 20
222456.641100001
 40
0
 41
0
 10
158862.184100002
 20
222455.548900001
 40
0
 41
0
 10
158862.087499999
 20
222455.488299999
 40
0
 41
0
 10
158861.358499996
 20
222456.578699999
 40
0
 41
0
 10
158859.498099998
 20
222455.333500002
 40
0
 41
0
 10
158861.704300001
 20
222451.986699998
 40
0
 41
0
 10
158861.616899997
 20
222451.9287
 40
0
 41
0
  0
LWPOLYLINE
  5
81
100
AcDbEntity
  8
095_interne constructieoppervlakte-ICA
100
AcDbPolyline
 90
11
 70
1
 10
158861.724500001
 20
222451.6263
 40
0
 41
0
 10
158861.808499999
 20
222451.682500001
 40
0
 41
0
 10
158863.762100004
 20
222448.737300001
 40
0
 41
0
 10
158865.813699998
 20
222450.085499998
 40
0
 41
0
 10
158864.629900001
 20
222451.826699998
 40
0
 41
0
 10
158864.715099998
 20
222451.8825
 40
0
 41
0
 10
158865.954300001
 20
222450.063499998
 40
0
 41
0
 10
158861.628300004
 20
222447.2207
 40
0
 41
0
 10
158861.575900003
 20
222447.300500002
 40
0
 41
0
 10
158863.681699999
 20
222448.684300002
 40
0
 41
0
 10
158861.724500001
 20
222451.6263
 40
0
 41
0
  0
LWPOLYLINE
  5
82
100
AcDbEntity
  8
095_interne constructieoppervlakte-ICA
100
AcDbPolyline
 90
11
 70
1
 10
158866.269299999
 20
222444.7467
 40
0
 41
0
 10
158864.227899998
 20
222447.853100002
 40
0
 41
0
 10
158862.1325
 20
222446.476100002
 40
0
 41
0
 10
158862.081500001
 20
222446.558499999
 40
0
 41
0
 10
158866.389300004
 20
222449.401500002
 40
0
 41
0
 10
158867.062700003
 20
222448.376899999
 40
0
 41
0
 10
158866.9727
 20
222448.321899999
 40
0
 41
0
 10
158866.360100001
 20
222449.254099999
 40
0
 41
0
 10
158864.308300003
 20
222447.905900002
 40
0
 41
0
 10
158866.344700001
 20
222444.807100002
 40
0
 41
0
 10
158866.269299999
 20
222444.7467
 40
0
 41
0
  0
LWPOLYLINE
  5
83
100
AcDbEntity
  8
095_interne constructieoppervlakte-ICA
100
AcDbPolyline
 90
11
 70
1
 10
158866.345299996
 20
222444.677299999
 40
0
 41
0
 10
158866.438500002
 20
222444.7271
 40
0
 41
0
 10
158868.392700002
 20
222441.778900001
 40
0
 41
0
 10
158870.437899999
 20
222443.134500001
 40
0
 41
0
 10
158869.112300001
 20
222445.134300001
 40
0
 41
0
 10
158869.193099998
 20
222445.187899999
 40
0
 41
0
 10
158870.576700002
 20
222443.100499999
 40
0
 41
0
 10
158866.261299998
 20
222440.236900002
 40
0
 41
0
 10
158866.201899998
 20
222440.326499999
 40
0
 41
0
 10
158868.304899998
 20
222441.7207
 40
0
 41
0
 10
158866.345299996
 20
222444.677299999
 40
0
 41
0
  0
LWPOLYLINE
  5
84
100
AcDbEntity
  8
095_interne constructieoppervlakte-ICA
100
AcDbPolyline
 90
9
 70
1
 10
158870.894100003
 20
222437.8147
 40
0
 41
0
 10
158868.862300001
 20
222440.880100001
 40
0
 41
0
 10
158866.759099998
 20
222439.4859
 40
0
 41
0
 10
158866.705499999
 20
222439.5667
 40
0
 41
0
 10
158871.022500001
 20
222442.428100001
 40
0
 41
0
 10
158871.075900003
 20
222442.3475
 40
0
 41
0
 10
158868.950099997
 20
222440.938299999
 40
0
 41
0
 10
158870.983499996
 20
222437.870299999
 40
0
 41
0
 10
158870.894100003
 20
222437.8147
 40
0
 41
0
  0
LWPOLYLINE
  5
86
100
AcDbEntity
  8
090_bouwlaagoppervlakte-LA
100
AcDbPolyline
 90
26
 70
1
 10
158860.716499999
 20
222463.967900001
 40
0
 41
0
 10
158861.3649
 20
222462.986699998
 40
0
 41
0
 10
158861.660499997
 20
222463.190099999
 40
0
 41
0
 10
158861.7249
 20
222463.0931
 40
0
 41
0
 10
158862.141900003
 20
222462.465500001
 40
0
 41
0
 10
158863.2597
 20
222460.770100001
 40
0
 41
0
 10
158874.577299997
 20
222443.603300002
 40
0
 41
0
 10
158877.1483
 20
222445.322700001
 40
0
 41
0
 10
158882.225699998
 20
222437.6107
 40
0
 41
0
 10
158882.151100002
 20
222437.554299999
 40
0
 41
0
 10
158881.973099999
 20
222437.4331
 40
0
 41
0
 10
158882.021300003
 20
222437.360300001
 40
0
 41
0
 10
158881.936099999
 20
222437.3039
 40
0
 41
0
 10
158879.775700003
 20
222435.872900002
 40
0
 41
0
 10
158879.516900003
 20
222435.7139
 40
0
 41
0
 10
158876.132100001
 20
222440.848900002
 40
0
 41
0
 10
158867.858900003
 20
222435.3715
 40
0
 41
0
 10
158853.276100002
 20
222457.508099999
 40
0
 41
0
 10
158853.212300003
 20
222457.598299999
 40
0
 41
0
 10
158852.522100002
 20
222458.6395
 40
0
 41
0
 10
158852.474500001
 20
222458.710700002
 40
0
 41
0
 10
158848.840300001
 20
222464.269699998
 40
0
 41
0
 10
158857.2799
 20
222469.781300001
 40
0
 41
0
 10
158860.945299998
 20
222464.266100001
 40
0
 41
0
 10
158861.012699999
 20
222464.164700002
 40
0
 41
0
 10
158860.716499999
 20
222463.967900001
 40
0
 41
0
  0
LWPOLYLINE
  5
88
100
AcDbEntity
  8
050_deur
100
AcDbPolyline
 90
4
 70
1
 10
158854.148900002
 20
222460.869199999
 40
0
 41
0
 10
158854.611100003
 20
222460.168200001
 40
0
 41
0
 10
158853.910099998
 20
222459.706
 40
0
 41
0
 10
158854.148900002
 20
222460.869199999
 40
0
 41
0
  0
LWPOLYLINE
  5
89
100
AcDbEntity
  8
050_deur
100
AcDbPolyline
 90
4
 70
1
 10
158851.655599996
 20
222463.183800001
 40
0
 41
0
 10
158852.359399997
 20
222463.648800001
 40
0
 41
0
 10
158851.894400001
 20
222464.352600001
 40
0
 41
0
 10
158851.655599996
 20
222463.183800001
 40
0
 41
0
  0
LWPOLYLINE
  5
8A
100
AcDbEntity
  8
050_deur
100
AcDbPolyline
 90
4
 70
1
 10
158864.1074
 20
222461.328899998
 40
0
 41
0
 10
158863.2597
 20
222460.77
 40
0
 41
0
 10
158862.700800002
 20
222461.617699999
 40
0
 41
0
 10
158864.1074
 20
222461.328899998
 40
0
 41
0
  0
LWPOLYLINE
  5
8B
100
AcDbEntity
  8
050_deur
100
AcDbPolyline
 90
4
 70
1
 10
158862.700800002
 20
222461.617699999
 40
0
 41
0
 10
158862.141900003
 20
222462.465399999
 40
0
 41
0
 10
158862.989699997
 20
222463.024300002
 40
0
 41
0
 10
158862.700800002
 20
222461.617699999
 40
0
 41
0
  0
LWPOLYLINE
  5
8C
100
AcDbEntity
  8
050_deur
100
AcDbPolyline
 90
4
 70
1
 10
158864.352600001
 20
222455.818100002
 40
0
 41
0
 10
158863.661899999
 20
222455.3609
 40
0
 41
0
 10
158863.204800002
 20
222456.051600002
 40
0
 41
0
 10
158864.352600001
 20
222455.818100002
 40
0
 41
0
  0
LWPOLYLINE
  5
8D
100
AcDbEntity
  8
050_deur
100
AcDbPolyline
 90
4
 70
1
 10
158863.204800002
 20
222456.051600002
 40
0
 41
0
 10
158862.747699998
 20
222456.742199998
 40
0
 41
0
 10
158863.438299999
 20
222457.199299999
 40
0
 41
0
 10
158863.204800002
 20
222456.051600002
 40
0
 41
0
  0
LWPOLYLINE
  5
8E
100
AcDbEntity
  8
050_deur
100
AcDbPolyline
 90
4
 70
1
 10
158867.0713
 20
222454.056400001
 40
0
 41
0
 10
158866.5471
 20
222454.8222
 40
0
 41
0
 10
158865.7843
 20
222454.313200001
 40
0
 41
0
 10
158867.0713
 20
222454.056400001
 40
0
 41
0
  0
LWPOLYLINE
  5
8F
100
AcDbEntity
  8
050_deur
100
AcDbPolyline
 90
4
 70
1
 10
158865.7843
 20
222454.313200001
 40
0
 41
0
 10
158865.012400001
 20
222453.7982
 40
0
 41
0
 10
158865.527500004
 20
222453.026299998
 40
0
 41
0
 10
158865.7843
 20
222454.313200001
 40
0
 41
0
  0
LWPOLYLINE
  5
90
100
AcDbEntity
  8
050_deur
100
AcDbPolyline
 90
4
 70
1
 10
158864.247100003
 20
222441.9597
 40
0
 41
0
 10
158863.792400003
 20
222442.648699999
 40
0
 41
0
 10
158864.481399998
 20
222443.103500001
 40
0
 41
0
 10
158864.247100003
 20
222441.9597
 40
0
 41
0
  0
LWPOLYLINE
  5
91
100
AcDbEntity
  8
050_deur
100
AcDbPolyline
 90
4
 70
1
 10
158866.859700002
 20
222452.384500001
 40
0
 41
0
 10
158866.0722
 20
222451.863699999
 40
0
 41
0
 10
158865.551399998
 20
222452.6512
 40
0
 41
0
 10
158866.859700002
 20
222452.384500001
 40
0
 41
0
  0
LWPOLYLINE
  5
92
100
AcDbEntity
  8
050_deur
100
AcDbPolyline
 90
4
 70
1
 10
158871.414300002
 20
222445.464699999
 40
0
 41
0
 10
158870.641999997
 20
222444.953899998
 40
0
 41
0
 10
158870.131200001
 20
222445.7262
 40
0
 41
0
 10
158871.414300002
 20
222445.464699999
 40
0
 41
0
  0
LWPOLYLINE
  5
93
100
AcDbEntity
  8
050_deur
100
AcDbPolyline
 90
4
 70
1
 10
158853.453900002
 20
222459.480999999
 40
0
 41
0
 10
158852.7355
 20
222458.993999999
 40
0
 41
0
 10
158852.294200003
 20
222459.6778
 40
0
 41
0
 10
158853.453900002
 20
222459.480999999
 40
0
 41
0
  0
LWPOLYLINE
  5
95
100
AcDbEntity
  8
060_raam
100
AcDbPolyline
 90
5
 70
1
 10
158862.639399998
 20
222456.778900001
 40
0
 41
0
 10
158862.672300004
 20
222456.800700001
 40
0
 41
0
 10
158860.162600003
 20
222460.594500002
 40
0
 41
0
 10
158860.129699998
 20
222460.572700001
 40
0
 41
0
 10
158862.639399998
 20
222456.778900001
 40
0
 41
0
  0
LWPOLYLINE
  5
96
100
AcDbEntity
  8
060_raam
100
AcDbPolyline
 90
5
 70
1
 10
158866.010700002
 20
222451.723700002
 40
0
 41
0
 10
158866.055500001
 20
222451.7533
 40
0
 41
0
 10
158868.778399997
 20
222447.625799999
 40
0
 41
0
 10
158868.733599998
 20
222447.596299999
 40
0
 41
0
 10
158866.010700002
 20
222451.723700002
 40
0
 41
0
  0
LWPOLYLINE
  5
97
100
AcDbEntity
  8
060_raam
100
AcDbPolyline
 90
5
 70
1
 10
158873.304700002
 20
222440.7128
 40
0
 41
0
 10
158873.362599999
 20
222440.751600001
 40
0
 41
0
 10
158870.612199999
 20
222444.849100001
 40
0
 41
0
 10
158870.554300003
 20
222444.810199998
 40
0
 41
0
 10
158873.304700002
 20
222440.7128
 40
0
 41
0
  0
LWPOLYLINE
  5
98
100
AcDbEntity
  8
060_raam
100
AcDbPolyline
 90
5
 70
1
 10
158880.3266
 20
222440.104699999
 40
0
 41
0
 10
158880.271200001
 20
222440.0682
 40
0
 41
0
 10
158877.221199997
 20
222444.694200002
 40
0
 41
0
 10
158877.276500002
 20
222444.730700001
 40
0
 41
0
 10
158880.3266
 20
222440.104699999
 40
0
 41
0
  0
LWPOLYLINE
  5
99
100
AcDbEntity
  8
060_raam
100
AcDbPolyline
 90
5
 70
1
 10
158876.7601
 20
222444.766399998
 40
0
 41
0
 10
158876.7905
 20
222444.719799999
 40
0
 41
0
 10
158875.042099997
 20
222443.5803
 40
0
 41
0
 10
158875.011699997
 20
222443.626800001
 40
0
 41
0
 10
158876.7601
 20
222444.766399998
 40
0
 41
0
  0
LWPOLYLINE
  5
9A
100
AcDbEntity
  8
060_raam
100
AcDbPolyline
 90
5
 70
1
 10
158873.949600004
 20
222444.201900002
 40
0
 41
0
 10
158873.888899997
 20
222444.161400002
 40
0
 41
0
 10
158872.826399997
 20
222445.752999999
 40
0
 41
0
 10
158872.887100004
 20
222445.793499999
 40
0
 41
0
 10
158873.949600004
 20
222444.201900002
 40
0
 41
0
  0
LWPOLYLINE
  5
9B
100
AcDbEntity
  8
060_raam
100
AcDbPolyline
 90
5
 70
1
 10
158872.605700001
 20
222446.212900002
 40
0
 41
0
 10
158872.558700003
 20
222446.182300001
 40
0
 41
0
 10
158871.517999999
 20
222447.781399999
 40
0
 41
0
 10
158871.565099999
 20
222447.812100001
 40
0
 41
0
 10
158872.605700001
 20
222446.212900002
 40
0
 41
0
  0
LWPOLYLINE
  5
9C
100
AcDbEntity
  8
060_raam
100
AcDbPolyline
 90
5
 70
1
 10
158871.272699997
 20
222448.217500001
 40
0
 41
0
 10
158871.230300002
 20
222448.190099999
 40
0
 41
0
 10
158870.157399997
 20
222449.848700002
 40
0
 41
0
 10
158870.199900001
 20
222449.8761
 40
0
 41
0
 10
158871.272699997
 20
222448.217500001
 40
0
 41
0
  0
LWPOLYLINE
  5
9D
100
AcDbEntity
  8
060_raam
100
AcDbPolyline
 90
5
 70
1
 10
158869.918300003
 20
222450.2753
 40
0
 41
0
 10
158869.866800003
 20
222450.2414
 40
0
 41
0
 10
158868.789099999
 20
222451.876600001
 40
0
 41
0
 10
158868.840599999
 20
222451.910500001
 40
0
 41
0
 10
158869.918300003
 20
222450.2753
 40
0
 41
0
  0
LWPOLYLINE
  5
9E
100
AcDbEntity
  8
060_raam
100
AcDbPolyline
 90
5
 70
1
 10
158868.582500003
 20
222452.305599999
 40
0
 41
0
 10
158868.544200003
 20
222452.2797
 40
0
 41
0
 10
158867.443999998
 20
222453.913100001
 40
0
 41
0
 10
158867.482299998
 20
222453.938900001
 40
0
 41
0
 10
158868.582500003
 20
222452.305599999
 40
0
 41
0
  0
LWPOLYLINE
  5
9F
100
AcDbEntity
  8
060_raam
100
AcDbPolyline
 90
5
 70
1
 10
158865.743600003
 20
222456.627799999
 40
0
 41
0
 10
158865.685099997
 20
222456.587699998
 40
0
 41
0
 10
158864.563699998
 20
222458.225400001
 40
0
 41
0
 10
158864.622199997
 20
222458.265500002
 40
0
 41
0
 10
158865.743600003
 20
222456.627799999
 40
0
 41
0
  0
LWPOLYLINE
  5
A0
100
AcDbEntity
  8
060_raam
100
AcDbPolyline
 90
5
 70
1
 10
158864.415600002
 20
222458.5997
 40
0
 41
0
 10
158864.364399999
 20
222458.566100001
 40
0
 41
0
 10
158863.271499999
 20
222460.2348
 40
0
 41
0
 10
158863.322700001
 20
222460.268300001
 40
0
 41
0
 10
158864.415600002
 20
222458.5997
 40
0
 41
0
  0
LWPOLYLINE
  5
A1
100
AcDbEntity
  8
060_raam
100
AcDbPolyline
 90
5
 70
1
 10
158860.431699999
 20
222464.675500002
 40
0
 41
0
 10
158860.3759
 20
222464.638
 40
0
 41
0
 10
158859.284999996
 20
222466.262800001
 40
0
 41
0
 10
158859.340800002
 20
222466.3002
 40
0
 41
0
 10
158860.431699999
 20
222464.675500002
 40
0
 41
0
  0
LWPOLYLINE
  5
A2
100
AcDbEntity
  8
060_raam
100
AcDbPolyline
 90
5
 70
1
 10
158857.078400001
 20
222469.438200001
 40
0
 41
0
 10
158857.109099999
 20
222469.391199999
 40
0
 41
0
 10
158855.320600003
 20
222468.219900001
 40
0
 41
0
 10
158855.289899997
 20
222468.266800001
 40
0
 41
0
 10
158857.078400001
 20
222469.438200001
 40
0
 41
0
  0
LWPOLYLINE
  5
A3
100
AcDbEntity
  8
060_raam
100
AcDbPolyline
 90
5
 70
1
 10
158852.611699998
 20
222458.908399999
 40
0
 41
0
 10
158852.666299999
 20
222458.9443
 40
0
 41
0
 10
158849.8222
 20
222463.266399998
 40
0
 41
0
 10
158849.7676
 20
222463.2304
 40
0
 41
0
 10
158852.611699998
 20
222458.908399999
 40
0
 41
0
  0
LWPOLYLINE
  5
A4
100
AcDbEntity
  8
060_raam
100
AcDbPolyline
 90
5
 70
1
 10
158854.139799997
 20
222456.604699999
 40
0
 41
0
 10
158854.196500003
 20
222456.642000001
 40
0
 41
0
 10
158855.359200001
 20
222454.8792
 40
0
 41
0
 10
158855.302500002
 20
222454.841800001
 40
0
 41
0
 10
158854.139799997
 20
222456.604699999
 40
0
 41
0
  0
LWPOLYLINE
  5
A5
100
AcDbEntity
  8
060_raam
100
AcDbPolyline
 90
5
 70
1
 10
158862.890699998
 20
222443.405400001
 40
0
 41
0
 10
158862.956100002
 20
222443.449200001
 40
0
 41
0
 10
158859.357600004
 20
222448.8167
 40
0
 41
0
 10
158859.292199999
 20
222448.772799999
 40
0
 41
0
 10
158862.890699998
 20
222443.405400001
 40
0
 41
0
  0
LWPOLYLINE
  5
A6
100
AcDbEntity
  8
060_raam
100
AcDbPolyline
 90
5
 70
1
 10
158857.778399997
 20
222451.128899999
 40
0
 41
0
 10
158857.837800004
 20
222451.168499999
 40
0
 41
0
 10
158855.465499997
 20
222454.7247
 40
0
 41
0
 10
158855.406099998
 20
222454.6851
 40
0
 41
0
 10
158857.778399997
 20
222451.128899999
 40
0
 41
0
  0
LWPOLYLINE
  5
A7
100
AcDbEntity
  8
060_raam
100
AcDbPolyline
 90
5
 70
1
 10
158867.179899998
 20
222436.905400001
 40
0
 41
0
 10
158867.232199997
 20
222436.958799999
 40
0
 41
0
 10
158863.774700001
 20
222442.198100001
 40
0
 41
0
 10
158863.722300001
 20
222442.144699998
 40
0
 41
0
 10
158867.179899998
 20
222436.905400001
 40
0
 41
0
  0
LWPOLYLINE
  5
A8
100
AcDbEntity
  8
060_raam
100
AcDbPolyline
 90
5
 70
1
 10
158879.524800003
 20
222436.034000002
 40
0
 41
0
 10
158879.555699997
 20
222436.054499999
 40
0
 41
0
 10
158877.218999997
 20
222439.579999998
 40
0
 41
0
 10
158877.188100003
 20
222439.559500001
 40
0
 41
0
 10
158879.524800003
 20
222436.034000002
 40
0
 41
0
  0
LWPOLYLINE
  5
AA
100
AcDbEntity
  8
091_bruto vloeroppervlakte-GFA
100
AcDbPolyline
 90
26
 70
1
 10
158860.716499999
 20
222463.967900001
 40
0
 41
0
 10
158861.3649
 20
222462.986699998
 40
0
 41
0
 10
158861.660499997
 20
222463.190099999
 40
0
 41
0
 10
158861.7249
 20
222463.0931
 40
0
 41
0
 10
158862.141900003
 20
222462.465500001
 40
0
 41
0
 10
158863.2597
 20
222460.770100001
 40
0
 41
0
 10
158874.577299997
 20
222443.603300002
 40
0
 41
0
 10
158877.1483
 20
222445.322700001
 40
0
 41
0
 10
158882.225699998
 20
222437.6107
 40
0
 41
0
 10
158882.151100002
 20
222437.554299999
 40
0
 41
0
 10
158881.973099999
 20
222437.4331
 40
0
 41
0
 10
158882.021300003
 20
222437.360300001
 40
0
 41
0
 10
158881.936099999
 20
222437.3039
 40
0
 41
0
 10
158879.775700003
 20
222435.872900002
 40
0
 41
0
 10
158879.516900003
 20
222435.7139
 40
0
 41
0
 10
158876.132100001
 20
222440.848900002
 40
0
 41
0
 10
158867.858900003
 20
222435.3715
 40
0
 41
0
 10
158853.276100002
 20
222457.508099999
 40
0
 41
0
 10
158853.212300003
 20
222457.598299999
 40
0
 41
0
 10
158852.522100002
 20
222458.6395
 40
0
 41
0
 10
158852.474500001
 20
222458.710700002
 40
0
 41
0
 10
158848.840300001
 20
222464.269699998
 40
0
 41
0
 10
158857.2799
 20
222469.781300001
 40
0
 41
0
 10
158860.945299998
 20
222464.266100001
 40
0
 41
0
 10
158861.012699999
 20
222464.164700002
 40
0
 41
0
 10
158860.716499999
 20
222463.967900001
 40
0
 41
0
  0
LWPOLYLINE
  5
AC
100
AcDbEntity
  8
012_noordpijl
100
AcDbPolyline
 90
5
 70
1
 10
158848.045500003
 20
222424.086399999
 40
0
 41
0
 10
158848.840300001
 20
222427.265500002
 40
0
 41
0
 10
158849.6351
 20
222424.086399999
 40
0
 41
0
 10
158848.840300001
 20
222424.881200001
 40
0
 41
0
 10
158848.045500003
 20
222424.086399999
 40
0
 41
0
  0
LINE
  5
AD
100
AcDbEntity
  8
012_noordpijl
100
AcDbLine
 10
158848.840300001
 20
222424.881200001
 30
0
 11
158848.840300001
 21
222427.265500002
 31
0
  0
LWPOLYLINE
  5
AE
100
AcDbEntity
  8
012_noordpijl
100
AcDbPolyline
 90
4
 70
0
 10
158848.363399997
 20
222427.5834
 40
0
 41
0
 10
158848.363399997
 20
222428.855
 40
0
 41
0
 10
158849.317199998
 20
222427.5834
 40
0
 41
0
 10
158849.317199998
 20
222428.855
 40
0
 41
0
  0
LINE
  5
B0
100
AcDbEntity
  8
013_schaalstok
100
AcDbLine
 10
158858.840300001
 20
222425.3715
 30
0
 11
158868.840300001
 21
222425.3715
 31
0
  0
LINE
  5
B1
100
AcDbEntity
  8
013_schaalstok
100
AcDbLine
 10
158858.840300001
 20
222425.3715
 30
0
 11
158858.840300001
 21
222425.8715
 31
0
  0
LINE
  5
B2
100
AcDbEntity
  8
013_schaalstok
100
AcDbLine
 10
158863.840300001
 20
222425.3715
 30
0
 11
158863.840300001
 21
222425.8715
 31
0
  0
LWPOLYLINE
  5
B3
100
AcDbEntity
  8
013_schaalstok
100
AcDbPolyline
 90
13
 70
1
 10
158858.695900001
 20
222428.0253
 40
0
 41
0
 10
158858.947899997
 20
222428.0253
 40
0
 41
0
 10
158859.136799999
 20
222427.899300002
 40
0
 41
0
 10
158859.1998
 20
222427.647399999
 40
0
 41
0
 10
158859.1998
 20
222426.891600002
 40
0
 41
0
 10
158859.136799999
 20
222426.639699999
 40
0
 41
0
 10
158858.947899997
 20
222426.513700001
 40
0
 41
0
 10
158858.695900001
 20
222426.513700001
 40
0
 41
0
 10
158858.506999999
 20
222426.639699999
 40
0
 41
0
 10
158858.443999998
 20
222426.891600002
 40
0
 41
0
 10
158858.443999998
 20
222427.647399999
 40
0
 41
0
 10
158858.506999999
 20
222427.899300002
 40
0
 41
0
 10
158858.695900001
 20
222428.0253
 40
0
 41
0
  0
LWPOLYLINE
  5
B4
100
AcDbEntity
  8
013_schaalstok
100
AcDbPolyline
 90
11
 70
0
 10
158864.1778
 20
222428.0251
 40
0
 41
0
 10
158863.484899998
 20
222428.0251
 40
0
 41
0
 10
158863.484899998
 20
222427.899099998
 40
0
 41
0
 10
158863.484899998
 20
222427.395300001
 40
0
 41
0
 10
158863.673900001
 20
222427.269299999
 40
0
 41
0
 10
158864.051799998
 20
222427.269299999
 40
0
 41
0
 10
158864.1778
 20
222427.143300001
 40
0
 41
0
 10
158864.1778
 20
222426.6395
 40
0
 41
0
 10
158863.988799997
 20
222426.513500001
 40
0
 41
0
 10
158863.673900001
 20
222426.513500001
 40
0
 41
0
 10
158863.484899998
 20
222426.6395
 40
0
 41
0
  0
LWPOLYLINE
  5
B5
100
AcDbEntity
  8
013_schaalstok
100
AcDbPolyline
 90
13
 70
1
 10
158869.1998
 20
222428.000599999
 40
0
 41
0
 10
158869.451700002
 20
222428.000599999
 40
0
 41
0
 10
158869.640699998
 20
222427.874600001
 40
0
 41
0
 10
158869.703599997
 20
222427.622699998
 40
0
 41
0
 10
158869.703599997
 20
222426.866900001
 40
0
 41
0
 10
158869.640699998
 20
222426.614999998
 40
0
 41
0
 10
158869.451700002
 20
222426.489
 40
0
 41
0
 10
158869.1998
 20
222426.489
 40
0
 41
0
 10
158869.010799997
 20
222426.614999998
 40
0
 41
0
 10
158868.947800003
 20
222426.866900001
 40
0
 41
0
 10
158868.947800003
 20
222427.622699998
 40
0
 41
0
 10
158869.010799997
 20
222427.874600001
 40
0
 41
0
 10
158869.1998
 20
222428.000599999
 40
0
 41
0
  0
LWPOLYLINE
  5
B6
100
AcDbEntity
  8
013_schaalstok
100
AcDbPolyline
 90
3
 70
0
 10
158868.192000002
 20
222426.489
 40
0
 41
0
 10
158868.380999997
 20
222426.489
 40
0
 41
0
 10
158868.569899999
 20
222426.489
 40
0
 41
0
  0
LWPOLYLINE
  5
B7
100
AcDbEntity
  8
013_schaalstok
100
AcDbPolyline
 90
3
 70
0
 10
158868.380999997
 20
222426.489
 40
0
 41
0
 10
158868.380999997
 20
222428.000599999
 40
0
 41
0
 10
158868.079400003
 20
222427.7487
 40
0
 41
0
  0
LINE
  5
B8
100
AcDbEntity
  8
013_schaalstok
100
AcDbLine
 10
158868.840300001
 20
222425.3715
 30
0
 11
158868.840300001
 21
222425.8715
 31
0
  0
LWPOLYLINE
  5
BA
100
AcDbEntity
  8
LEVEL_AREA
100
AcDbPolyline
 90
26
 70
1
 10
158860.716499999
 20
222463.967900001
 40
0
 41
0
 10
158861.3649
 20
222462.986699998
 40
0
 41
0
 10
158861.660499997
 20
222463.190099999
 40
0
 41
0
 10
158861.7249
 20
222463.0931
 40
0
 41
0
 10
158862.141900003
 20
222462.465500001
 40
0
 41
0
 10
158863.2597
 20
222460.770100001
 40
0
 41
0
 10
158874.577299997
 20
222443.603300002
 40
0
 41
0
 10
158877.1483
 20
222445.322700001
 40
0
 41
0
 10
158882.225699998
 20
222437.6107
 40
0
 41
0
 10
158882.151100002
 20
222437.554299999
 40
0
 41
0
 10
158881.973099999
 20
222437.4331
 40
0
 41
0
 10
158882.021300003
 20
222437.360300001
 40
0
 41
0
 10
158881.936099999
 20
222437.3039
 40
0
 41
0
 10
158879.775700003
 20
222435.872900002
 40
0
 41
0
 10
158879.516900003
 20
222435.7139
 40
0
 41
0
 10
158876.132100001
 20
222440.848900002
 40
0
 41
0
 10
158867.858900003
 20
222435.3715
 40
0
 41
0
 10
158853.276100002
 20
222457.508099999
 40
0
 41
0
 10
158853.212300003
 20
222457.598299999
 40
0
 41
0
 10
158852.522100002
 20
222458.6395
 40
0
 41
0
 10
158852.474500001
 20
222458.710700002
 40
0
 41
0
 10
158848.840300001
 20
222464.269699998
 40
0
 41
0
 10
158857.2799
 20
222469.781300001
 40
0
 41
0
 10
158860.945299998
 20
222464.266100001
 40
0
 41
0
 10
158861.012699999
 20
222464.164700002
 40
0
 41
0
 10
158860.716499999
 20
222463.967900001
 40
0
 41
0
  0
LWPOLYLINE
  5
BC
100
AcDbEntity
  8
GROSS_FLOOR_AREA
100
AcDbPolyline
 90
26
 70
1
 10
158860.716499999
 20
222463.967900001
 40
0
 41
0
 10
158861.3649
 20
222462.986699998
 40
0
 41
0
 10
158861.660499997
 20
222463.190099999
 40
0
 41
0
 10
158861.7249
 20
222463.0931
 40
0
 41
0
 10
158862.141900003
 20
222462.465500001
 40
0
 41
0
 10
158863.2597
 20
222460.770100001
 40
0
 41
0
 10
158874.577299997
 20
222443.603300002
 40
0
 41
0
 10
158877.1483
 20
222445.322700001
 40
0
 41
0
 10
158882.225699998
 20
222437.6107
 40
0
 41
0
 10
158882.151100002
 20
222437.554299999
 40
0
 41
0
 10
158881.973099999
 20
222437.4331
 40
0
 41
0
 10
158882.021300003
 20
222437.360300001
 40
0
 41
0
 10
158881.936099999
 20
222437.3039
 40
0
 41
0
 10
158879.775700003
 20
222435.872900002
 40
0
 41
0
 10
158879.516900003
 20
222435.7139
 40
0
 41
0
 10
158876.132100001
 20
222440.848900002
 40
0
 41
0
 10
158867.858900003
 20
222435.3715
 40
0
 41
0
 10
158853.276100002
 20
222457.508099999
 40
0
 41
0
 10
158853.212300003
 20
222457.598299999
 40
0
 41
0
 10
158852.522100002
 20
222458.6395
 40
0
 41
0
 10
158852.474500001
 20
222458.710700002
 40
0
 41
0
 10
158848.840300001
 20
222464.269699998
 40
0
 41
0
 10
158857.2799
 20
222469.781300001
 40
0
 41
0
 10
158860.945299998
 20
222464.266100001
 40
0
 41
0
 10
158861.012699999
 20
222464.164700002
 40
0
 41
0
 10
158860.716499999
 20
222463.967900001
 40
0
 41
0
  0
LWPOLYLINE
  5
C3
100
AcDbEntity
  8
LOCATION
100
AcDbPolyline
 90
25
 70
1
 10
158863.263099998
 20
222443.0669
 40
0
 41
0
 10
158859.133500002
 20
222449.279100001
 40
0
 41
0
 10
158860.209299997
 20
222449.987300001
 40
0
 41
0
 10
158859.924500004
 20
222450.4221
 40
0
 41
0
 10
158863.653099999
 20
222452.916499998
 40
0
 41
0
 10
158863.943700001
 20
222452.445900001
 40
0
 41
0
 10
158864.993900001
 20
222453.1373
 40
0
 41
0
 10
158865.3869
 20
222452.5425
 40
0
 41
0
 10
158865.5515
 20
222452.651299998
 40
0
 41
0
 10
158866.072300002
 20
222451.863699999
 40
0
 41
0
 10
158865.907300003
 20
222451.754900001
 40
0
 41
0
 10
158869.0889
 20
222446.9395
 40
0
 41
0
 10
158868.015100002
 20
222446.225699998
 40
0
 41
0
 10
158868.155900002
 20
222446.002900001
 40
0
 41
0
 10
158864.4573
 20
222443.550299998
 40
0
 41
0
 10
158864.300099999
 20
222443.7733
 40
0
 41
0
 10
158864.220899999
 20
222443.719500002
 40
0
 41
0
 10
158864.528700002
 20
222443.256499998
 40
0
 41
0
 10
158864.425700001
 20
222443.190699998
 40
0
 41
0
 10
158864.4815
 20
222443.103500001
 40
0
 41
0
 10
158863.792499997
 20
222442.648699999
 40
0
 41
0
 10
158863.730099998
 20
222442.746300001
 40
0
 41
0
 10
158863.694499999
 20
222442.723700002
 40
0
 41
0
 10
158863.427699998
 20
222443.179099999
 40
0
 41
0
 10
158863.263099998
 20
222443.0669
 40
0
 41
0
  0
LWPOLYLINE
  5
C4
100
AcDbEntity
  8
LOCATION
100
AcDbPolyline
 90
19
 70
1
 10
158869.460900001
 20
222446.390099999
 40
0
 41
0
 10
158869.969499998
 20
222445.6195
 40
0
 41
0
 10
158870.131300002
 20
222445.726300001
 40
0
 41
0
 10
158870.642099999
 20
222444.953899998
 40
0
 41
0
 10
158870.479500003
 20
222444.846700002
 40
0
 41
0
 10
158873.545299999
 20
222440.201699998
 40
0
 41
0
 10
158872.478699997
 20
222439.497699998
 40
0
 41
0
 10
158872.748099998
 20
222439.0427
 40
0
 41
0
 10
158869.068099998
 20
222436.603900001
 40
0
 41
0
 10
158868.733900003
 20
222437.026299998
 40
0
 41
0
 10
158867.708300002
 20
222436.349500001
 40
0
 41
0
 10
158863.6241
 20
222442.537700001
 40
0
 41
0
 10
158863.792499997
 20
222442.648699999
 40
0
 41
0
 10
158864.4815
 20
222443.103500001
 40
0
 41
0
 10
158864.670299999
 20
222443.228300002
 40
0
 41
0
 10
158864.520099998
 20
222443.463300001
 40
0
 41
0
 10
158868.252700001
 20
222445.937100001
 40
0
 41
0
 10
158868.413900003
 20
222445.697700001
 40
0
 41
0
 10
158869.460900001
 20
222446.390099999
 40
0
 41
0
  0
LWPOLYLINE
  5
C5
100
AcDbEntity
  8
LOCATION
100
AcDbPolyline
 90
15
 70
1
 10
158873.994900003
 20
222439.884100001
 40
0
 41
0
 10
158870.642099999
 20
222444.953899998
 40
0
 41
0
 10
158870.131300002
 20
222445.726300001
 40
0
 41
0
 10
158866.072300002
 20
222451.863699999
 40
0
 41
0
 10
158865.5515
 20
222452.651299998
 40
0
 41
0
 10
158864.860100001
 20
222453.6965
 40
0
 41
0
 10
158865.012500003
 20
222453.798300002
 40
0
 41
0
 10
158866.5471
 20
222454.822299998
 40
0
 41
0
 10
158866.707699999
 20
222454.929299999
 40
0
 41
0
 10
158874.557499997
 20
222443.067299999
 40
0
 41
0
 10
158874.881499998
 20
222443.261700001
 40
0
 41
0
 10
158876.107900001
 20
222441.410300002
 40
0
 41
0
 10
158875.786700003
 20
222441.2097
 40
0
 41
0
 10
158875.861500002
 20
222441.096700002
 40
0
 41
0
 10
158873.994900003
 20
222439.884100001
 40
0
 41
0
  0
LWPOLYLINE
  5
C6
100
AcDbEntity
  8
LOCATION
100
AcDbPolyline
 90
8
 70
1
 10
158882.021300003
 20
222437.360300001
 40
0
 41
0
 10
158881.936099999
 20
222437.3039
 40
0
 41
0
 10
158879.775700003
 20
222435.872900002
 40
0
 41
0
 10
158876.107900001
 20
222441.410300002
 40
0
 41
0
 10
158874.881499998
 20
222443.261700001
 40
0
 41
0
 10
158874.8257
 20
222443.346099999
 40
0
 41
0
 10
158877.0713
 20
222444.833500002
 40
0
 41
0
 10
158882.021300003
 20
222437.360300001
 40
0
 41
0
  0
LWPOLYLINE
  5
C7
100
AcDbEntity
  8
LOCATION
100
AcDbPolyline
 90
13
 70
1
 10
158855.4925
 20
222460.749299999
 40
0
 41
0
 10
158854.611100003
 20
222460.168299999
 40
0
 41
0
 10
158853.910099998
 20
222459.706099998
 40
0
 41
0
 10
158852.7773
 20
222458.959100001
 40
0
 41
0
 10
158852.7355
 20
222458.994100001
 40
0
 41
0
 10
158852.294299997
 20
222459.677900001
 40
0
 41
0
 10
158849.322700001
 20
222464.142900001
 40
0
 41
0
 10
158851.206900001
 20
222465.393300001
 40
0
 41
0
 10
158851.894500002
 20
222464.352699999
 40
0
 41
0
 10
158852.359499998
 20
222463.648899999
 40
0
 41
0
 10
158852.766500004
 20
222463.032699999
 40
0
 41
0
 10
158853.612499997
 20
222463.6171
 40
0
 41
0
 10
158855.4925
 20
222460.749299999
 40
0
 41
0
  0
LWPOLYLINE
  5
C8
100
AcDbEntity
  8
LOCATION
100
AcDbPolyline
 90
9
 70
1
 10
158851.289700002
 20
222465.440699998
 40
0
 41
0
 10
158852.064900003
 20
222465.9483
 40
0
 41
0
 10
158853.559900001
 20
222463.6655
 40
0
 41
0
 10
158852.784900002
 20
222463.158100002
 40
0
 41
0
 10
158852.432099998
 20
222463.6965
 40
0
 41
0
 10
158852.359499998
 20
222463.648899999
 40
0
 41
0
 10
158851.894500002
 20
222464.352699999
 40
0
 41
0
 10
158851.970100001
 20
222464.402100001
 40
0
 41
0
 10
158851.289700002
 20
222465.440699998
 40
0
 41
0
  0
LWPOLYLINE
  5
C9
100
AcDbEntity
  8
LOCATION
100
AcDbPolyline
 90
11
 70
1
 10
158864.530500002
 20
222453.8585
 40
0
 41
0
 10
158858.683300003
 20
222449.9859
 40
0
 41
0
 10
158857.874899998
 20
222451.204500001
 40
0
 41
0
 10
158855.499300003
 20
222454.785100002
 40
0
 41
0
 10
158853.916500002
 20
222457.170499999
 40
0
 41
0
 10
158859.754900001
 20
222461.020100001
 40
0
 41
0
 10
158862.651299998
 20
222456.6787
 40
0
 41
0
 10
158862.747699998
 20
222456.7423
 40
0
 41
0
 10
158863.661899999
 20
222455.361099999
 40
0
 41
0
 10
158863.563100003
 20
222455.295699999
 40
0
 41
0
 10
158864.530500002
 20
222453.8585
 40
0
 41
0
  0
LWPOLYLINE
  5
CA
100
AcDbEntity
  8
LOCATION
100
AcDbPolyline
 90
41
 70
1
 10
158852.127300002
 20
222465.995299999
 40
0
 41
0
 10
158855.166699998
 20
222468.000700001
 40
0
 41
0
 10
158855.7315
 20
222467.126899999
 40
0
 41
0
 10
158855.912100002
 20
222467.2423
 40
0
 41
0
 10
158855.311899997
 20
222468.170899998
 40
0
 41
0
 10
158857.141500004
 20
222469.377700001
 40
0
 41
0
 10
158860.716499999
 20
222463.967900001
 40
0
 41
0
 10
158861.3649
 20
222462.986699998
 40
0
 41
0
 10
158861.840700001
 20
222462.2665
 40
0
 41
0
 10
158862.141900003
 20
222462.465500001
 40
0
 41
0
 10
158863.2597
 20
222460.770100001
 40
0
 41
0
 10
158862.960299999
 20
222460.572099999
 40
0
 41
0
 10
158866.523900002
 20
222455.179699998
 40
0
 41
0
 10
158866.362300001
 20
222455.085900001
 40
0
 41
0
 10
158866.5471
 20
222454.822299998
 40
0
 41
0
 10
158865.012500003
 20
222453.798300002
 40
0
 41
0
 10
158864.835900001
 20
222454.065699998
 40
0
 41
0
 10
158864.685699999
 20
222453.966699999
 40
0
 41
0
 10
158863.7711
 20
222455.358899999
 40
0
 41
0
 10
158863.6985
 20
222455.3057
 40
0
 41
0
 10
158863.661899999
 20
222455.361099999
 40
0
 41
0
 10
158862.747699998
 20
222456.7423
 40
0
 41
0
 10
158860.1633
 20
222460.646899998
 40
0
 41
0
 10
158860.241300002
 20
222460.697900001
 40
0
 41
0
 10
158859.594899997
 20
222461.666499998
 40
0
 41
0
 10
158859.413900003
 20
222461.559700001
 40
0
 41
0
 10
158859.698299997
 20
222461.116300002
 40
0
 41
0
 10
158853.857500002
 20
222457.267499998
 40
0
 41
0
 10
158853.586099997
 20
222457.686099999
 40
0
 41
0
 10
158853.603500001
 20
222457.695900001
 40
0
 41
0
 10
158853.526900001
 20
222457.812100001
 40
0
 41
0
 10
158853.212300003
 20
222457.598299999
 40
0
 41
0
 10
158852.522100002
 20
222458.6395
 40
0
 41
0
 10
158852.769900002
 20
222458.8039
 40
0
 41
0
 10
158852.752300002
 20
222458.8279
 40
0
 41
0
 10
158853.965300001
 20
222459.622299999
 40
0
 41
0
 10
158853.910099998
 20
222459.706099998
 40
0
 41
0
 10
158854.611100003
 20
222460.168299999
 40
0
 41
0
 10
158854.666100003
 20
222460.084899999
 40
0
 41
0
 10
158855.634300001
 20
222460.723900002
 40
0
 41
0
 10
158852.127300002
 20
222465.995299999
 40
0
 41
0
  0
INSERT
  5
D2
100
AcDbEntity
  8
LCANCHOR
100
AcDbBlockReference
  2
$LCANCHOR
 10
158864.111199997
 20
222447.953600001
 30
0
 41
0.01
 42
0.01
  0
INSERT
  5
D3
100
AcDbEntity
  8
LCANCHOR
100
AcDbBlockReference
  2
$LCANCHOR
 10
158868.584600002
 20
222441.430300001
 30
0
 41
0.01
 42
0.01
  0
INSERT
  5
D4
100
AcDbEntity
  8
LCANCHOR
100
AcDbBlockReference
  2
$LCANCHOR
 10
158870.483999997
 20
222447.4672
 30
0
 41
0.01
 42
0.01
  0
INSERT
  5
D5
100
AcDbEntity
  8
LCANCHOR
100
AcDbBlockReference
  2
$LCANCHOR
 10
158878.423500001
 20
222440.4137
 30
0
 41
0.01
 42
0.01
  0
INSERT
  5
D6
100
AcDbEntity
  8
LCANCHOR
100
AcDbBlockReference
  2
$LCANCHOR
 10
158852.407499999
 20
222462.2368
 30
0
 41
0.01
 42
0.01
  0
INSERT
  5
D7
100
AcDbEntity
  8
LCANCHOR
100
AcDbBlockReference
  2
$LCANCHOR
 10
158852.424800001
 20
222464.613699999
 30
0
 41
0.01
 42
0.01
  0
INSERT
  5
D8
100
AcDbEntity
  8
LCANCHOR
100
AcDbBlockReference
  2
$LCANCHOR
 10
158859.223499999
 20
222455.5636
 30
0
 41
0.01
 42
0.01
  0
INSERT
  5
D9
100
AcDbEntity
  8
LCANCHOR
100
AcDbBlockReference
  2
$LCANCHOR
 10
158857.885215005
 20
222462.855857088
 30
0
 41
0.01
 42
0.01
  0
LWPOLYLINE
  5
DB
100
AcDbEntity
  8
LOCCARD
100
AcDbPolyline
 90
5
 70
1
 10
158864.111199997
 20
222447.953600001
 40
0
 41
0
 10
158864.111199997
 20
222450.083600001
 40
0
 41
0
 10
158868.307199997
 20
222450.083600001
 40
0
 41
0
 10
158868.307199997
 20
222447.953600001
 40
0
 41
0
 10
158864.111199997
 20
222447.953600001
 40
0
 41
0
  0
TEXT
  5
DC
100
AcDbEntity
  8
LOCCARD
 62
7
100
AcDbText
 10
158864.324199997
 20
222449.520600001
 30
0
 40
0.35
  1
0.05
 50
0
 41
1
 72
0
 11
158864.324199997
 21
222449.520600001
 31
0
100
AcDbText
 73
0
  0
TEXT
  5
DD
100
AcDbEntity
  8
LOCCARD
 62
7
100
AcDbText
 10
158864.324199997
 20
222449.070600001
 30
0
 40
0.3
  1
INTERNAATKAMER
 50
0
 41
1
 72
0
 11
158864.324199997
 21
222449.070600001
 31
0
100
AcDbText
 73
0
  0
TEXT
  5
DE
100
AcDbEntity
  8
LOCCARD
 62
7
100
AcDbText
 10
158864.324199997
 20
222448.620600001
 30
0
 40
0.3
  1

 50
0
 41
1
 72
0
 11
158864.324199997
 21
222448.620600001
 31
0
100
AcDbText
 73
0
  0
TEXT
  5
DF
100
AcDbEntity
  8
LOCCARD
 62
7
100
AcDbText
 10
158864.324199997
 20
222448.170600001
 30
0
 40
0.3
  1
Opp: 54.45 m²
 50
0
 41
1
 72
0
 11
158864.324199997
 21
222448.170600001
 31
0
100
AcDbText
 73
0
  0
LINE
  5
E0
100
AcDbEntity
  8
LOCCARD
100
AcDbLine
 10
158864.111199997
 20
222447.953600001
 30
0
 11
158864.111199997
 21
222447.953600001
 31
0
  0
LWPOLYLINE
  5
E1
100
AcDbEntity
  8
LOCCARD
100
AcDbPolyline
 90
5
 70
1
 10
158868.584600002
 20
222441.430300001
 40
0
 41
0
 10
158868.584600002
 20
222443.560300001
 40
0
 41
0
 10
158872.780600002
 20
222443.560300001
 40
0
 41
0
 10
158872.780600002
 20
222441.430300001
 40
0
 41
0
 10
158868.584600002
 20
222441.430300001
 40
0
 41
0
  0
TEXT
  5
E2
100
AcDbEntity
  8
LOCCARD
 62
7
100
AcDbText
 10
158868.797600002
 20
222442.997300001
 30
0
 40
0.35
  1
0.07
 50
0
 41
1
 72
0
 11
158868.797600002
 21
222442.997300001
 31
0
100
AcDbText
 73
0
  0
TEXT
  5
E3
100
AcDbEntity
  8
LOCCARD
 62
7
100
AcDbText
 10
158868.797600002
 20
222442.547300001
 30
0
 40
0.3
  1
INTERNAATKAMER
 50
0
 41
1
 72
0
 11
158868.797600002
 21
222442.547300001
 31
0
100
AcDbText
 73
0
  0
TEXT
  5
E4
100
AcDbEntity
  8
LOCCARD
 62
7
100
AcDbText
 10
158868.797600002
 20
222442.097300001
 30
0
 40
0.3
  1

 50
0
 41
1
 72
0
 11
158868.797600002
 21
222442.097300001
 31
0
100
AcDbText
 73
0
  0
TEXT
  5
E5
100
AcDbEntity
  8
LOCCARD
 62
7
100
AcDbText
 10
158868.797600002
 20
222441.647300001
 30
0
 40
0.3
  1
Opp: 53.63 m²
 50
0
 41
1
 72
0
 11
158868.797600002
 21
222441.647300001
 31
0
100
AcDbText
 73
0
  0
LINE
  5
E6
100
AcDbEntity
  8
LOCCARD
100
AcDbLine
 10
158868.584600002
 20
222441.430300001
 30
0
 11
158868.584600002
 21
222441.430300001
 31
0
  0
LWPOLYLINE
  5
E7
100
AcDbEntity
  8
LOCCARD
100
AcDbPolyline
 90
5
 70
1
 10
158870.483999997
 20
222447.4672
 40
0
 41
0
 10
158870.483999997
 20
222449.5972
 40
0
 41
0
 10
158873.549999997
 20
222449.5972
 40
0
 41
0
 10
158873.549999997
 20
222447.4672
 40
0
 41
0
 10
158870.483999997
 20
222447.4672
 40
0
 41
0
  0
TEXT
  5
E8
100
AcDbEntity
  8
LOCCARD
 62
7
100
AcDbText
 10
158870.696999997
 20
222449.0342
 30
0
 40
0.35
  1
0.09
 50
0
 41
1
 72
0
 11
158870.696999997
 21
222449.0342
 31
0
100
AcDbText
 73
0
  0
TEXT
  5
E9
100
AcDbEntity
  8
LOCCARD
 62
7
100
AcDbText
 10
158870.696999997
 20
222448.5842
 30
0
 40
0.3
  1
GANG
 50
0
 41
1
 72
0
 11
158870.696999997
 21
222448.5842
 31
0
100
AcDbText
 73
0
  0
TEXT
  5
EA
100
AcDbEntity
  8
LOCCARD
 62
7
100
AcDbText
 10
158870.696999997
 20
222448.1342
 30
0
 40
0.3
  1

 50
0
 41
1
 72
0
 11
158870.696999997
 21
222448.1342
 31
0
100
AcDbText
 73
0
  0
TEXT
  5
EB
100
AcDbEntity
  8
LOCCARD
 62
7
100
AcDbText
 10
158870.696999997
 20
222447.6842
 30
0
 40
0.3
  1
Opp: 37.69 m²
 50
0
 41
1
 72
0
 11
158870.696999997
 21
222447.6842
 31
0
100
AcDbText
 73
0
  0
LINE
  5
EC
100
AcDbEntity
  8
LOCCARD
100
AcDbLine
 10
158870.483999997
 20
222447.4672
 30
0
 11
158870.483999997
 21
222447.4672
 31
0
  0
LWPOLYLINE
  5
ED
100
AcDbEntity
  8
LOCCARD
100
AcDbPolyline
 90
5
 70
1
 10
158878.423500001
 20
222440.4137
 40
0
 41
0
 10
158878.423500001
 20
222442.5437
 40
0
 41
0
 10
158881.489500001
 20
222442.5437
 40
0
 41
0
 10
158881.489500001
 20
222440.4137
 40
0
 41
0
 10
158878.423500001
 20
222440.4137
 40
0
 41
0
  0
TEXT
  5
EE
100
AcDbEntity
  8
LOCCARD
 62
7
100
AcDbText
 10
158878.636500001
 20
222441.9807
 30
0
 40
0.35
  1
0.11
 50
0
 41
1
 72
0
 11
158878.636500001
 21
222441.9807
 31
0
100
AcDbText
 73
0
  0
TEXT
  5
EF
100
AcDbEntity
  8
LOCCARD
 62
7
100
AcDbText
 10
158878.636500001
 20
222441.5307
 30
0
 40
0.3
  1
GANG
 50
0
 41
1
 72
0
 11
158878.636500001
 21
222441.5307
 31
0
100
AcDbText
 73
0
  0
TEXT
  5
F0
100
AcDbEntity
  8
LOCCARD
 62
7
100
AcDbText
 10
158878.636500001
 20
222441.0807
 30
0
 40
0.3
  1

 50
0
 41
1
 72
0
 11
158878.636500001
 21
222441.0807
 31
0
100
AcDbText
 73
0
  0
TEXT
  5
F1
100
AcDbEntity
  8
LOCCARD
 62
7
100
AcDbText
 10
158878.636500001
 20
222440.6307
 30
0
 40
0.3
  1
Opp: 24.14 m²
 50
0
 41
1
 72
0
 11
158878.636500001
 21
222440.6307
 31
0
100
AcDbText
 73
0
  0
LINE
  5
F2
100
AcDbEntity
  8
LOCCARD
100
AcDbLine
 10
158878.423500001
 20
222440.4137
 30
0
 11
158878.423500001
 21
222440.4137
 31
0
  0
LWPOLYLINE
  5
F3
100
AcDbEntity
  8
LOCCARD
100
AcDbPolyline
 90
5
 70
1
 10
158852.407499999
 20
222462.2368
 40
0
 41
0
 10
158852.407499999
 20
222464.3668
 40
0
 41
0
 10
158858.043499999
 20
222464.3668
 40
0
 41
0
 10
158858.043499999
 20
222462.2368
 40
0
 41
0
 10
158852.407499999
 20
222462.2368
 40
0
 41
0
  0
TEXT
  5
F4
100
AcDbEntity
  8
LOCCARD
 62
7
100
AcDbText
 10
158852.620499999
 20
222463.8038
 30
0
 40
0.35
  1
0.01
 50
0
 41
1
 72
0
 11
158852.620499999
 21
222463.8038
 31
0
100
AcDbText
 73
0
  0
TEXT
  5
F5
100
AcDbEntity
  8
LOCCARD
 62
7
100
AcDbText
 10
158852.620499999
 20
222463.3538
 30
0
 40
0.3
  1
ONTSPANNINGSRMTE INT
 50
0
 41
1
 72
0
 11
158852.620499999
 21
222463.3538
 31
0
100
AcDbText
 73
0
  0
TEXT
  5
F6
100
AcDbEntity
  8
LOCCARD
 62
7
100
AcDbText
 10
158852.620499999
 20
222462.9038
 30
0
 40
0.3
  1

 50
0
 41
1
 72
0
 11
158852.620499999
 21
222462.9038
 31
0
100
AcDbText
 73
0
  0
TEXT
  5
F7
100
AcDbEntity
  8
LOCCARD
 62
7
100
AcDbText
 10
158852.620499999
 20
222462.4538
 30
0
 40
0.3
  1
Opp: 17.53 m²
 50
0
 41
1
 72
0
 11
158852.620499999
 21
222462.4538
 31
0
100
AcDbText
 73
0
  0
LINE
  5
F8
100
AcDbEntity
  8
LOCCARD
100
AcDbLine
 10
158852.407499999
 20
222462.2368
 30
0
 11
158852.407499999
 21
222462.2368
 31
0
  0
LWPOLYLINE
  5
F9
100
AcDbEntity
  8
LOCCARD
100
AcDbPolyline
 90
5
 70
1
 10
158852.424800001
 20
222464.613699999
 40
0
 41
0
 10
158852.424800001
 20
222466.743699999
 40
0
 41
0
 10
158855.120800001
 20
222466.743699999
 40
0
 41
0
 10
158855.120800001
 20
222464.613699999
 40
0
 41
0
 10
158852.424800001
 20
222464.613699999
 40
0
 41
0
  0
TEXT
  5
FA
100
AcDbEntity
  8
LOCCARD
 62
7
100
AcDbText
 10
158852.637800001
 20
222466.180699999
 30
0
 40
0.35
  1
0.02
 50
0
 41
1
 72
0
 11
158852.637800001
 21
222466.180699999
 31
0
100
AcDbText
 73
0
  0
TEXT
  5
FB
100
AcDbEntity
  8
LOCCARD
 62
7
100
AcDbText
 10
158852.637800001
 20
222465.730699999
 30
0
 40
0.3
  1
TOILETTEN
 50
0
 41
1
 72
0
 11
158852.637800001
 21
222465.730699999
 31
0
100
AcDbText
 73
0
  0
TEXT
  5
FC
100
AcDbEntity
  8
LOCCARD
 62
7
100
AcDbText
 10
158852.637800001
 20
222465.280699999
 30
0
 40
0.3
  1

 50
0
 41
1
 72
0
 11
158852.637800001
 21
222465.280699999
 31
0
100
AcDbText
 73
0
  0
TEXT
  5
FD
100
AcDbEntity
  8
LOCCARD
 62
7
100
AcDbText
 10
158852.637800001
 20
222464.830699999
 30
0
 40
0.3
  1
Opp: 2.6 m²
 50
0
 41
1
 72
0
 11
158852.637800001
 21
222464.830699999
 31
0
100
AcDbText
 73
0
  0
LINE
  5
FE
100
AcDbEntity
  8
LOCCARD
100
AcDbLine
 10
158852.424800001
 20
222464.613699999
 30
0
 11
158852.424800001
 21
222464.613699999
 31
0
  0
LWPOLYLINE
  5
FF
100
AcDbEntity
  8
LOCCARD
100
AcDbPolyline
 90
5
 70
1
 10
158859.223499999
 20
222455.5636
 40
0
 41
0
 10
158859.223499999
 20
222457.6936
 40
0
 41
0
 10
158863.419499999
 20
222457.6936
 40
0
 41
0
 10
158863.419499999
 20
222455.5636
 40
0
 41
0
 10
158859.223499999
 20
222455.5636
 40
0
 41
0
  0
TEXT
  5
100
100
AcDbEntity
  8
LOCCARD
 62
7
100
AcDbText
 10
158859.436499999
 20
222457.1306
 30
0
 40
0.35
  1
0.03
 50
0
 41
1
 72
0
 11
158859.436499999
 21
222457.1306
 31
0
100
AcDbText
 73
0
  0
TEXT
  5
101
100
AcDbEntity
  8
LOCCARD
 62
7
100
AcDbText
 10
158859.436499999
 20
222456.6806
 30
0
 40
0.3
  1
INTERNAATKAMER
 50
0
 41
1
 72
0
 11
158859.436499999
 21
222456.6806
 31
0
100
AcDbText
 73
0
  0
TEXT
  5
102
100
AcDbEntity
  8
LOCCARD
 62
7
100
AcDbText
 10
158859.436499999
 20
222456.2306
 30
0
 40
0.3
  1

 50
0
 41
1
 72
0
 11
158859.436499999
 21
222456.2306
 31
0
100
AcDbText
 73
0
  0
TEXT
  5
103
100
AcDbEntity
  8
LOCCARD
 62
7
100
AcDbText
 10
158859.436499999
 20
222455.7806
 30
0
 40
0.3
  1
Opp: 58.59 m²
 50
0
 41
1
 72
0
 11
158859.436499999
 21
222455.7806
 31
0
100
AcDbText
 73
0
  0
LINE
  5
104
100
AcDbEntity
  8
LOCCARD
100
AcDbLine
 10
158859.223499999
 20
222455.5636
 30
0
 11
158859.223499999
 21
222455.5636
 31
0
  0
LWPOLYLINE
  5
105
100
AcDbEntity
  8
LOCCARD
100
AcDbPolyline
 90
5
 70
1
 10
158857.885215005
 20
222462.855857088
 40
0
 41
0
 10
158857.885215005
 20
222464.985857088
 40
0
 41
0
 10
158860.721215005
 20
222464.985857088
 40
0
 41
0
 10
158860.721215005
 20
222462.855857088
 40
0
 41
0
 10
158857.885215005
 20
222462.855857088
 40
0
 41
0
  0
TEXT
  5
106
100
AcDbEntity
  8
LOCCARD
 62
7
100
AcDbText
 10
158858.098215005
 20
222464.422857088
 30
0
 40
0.35
  1
0.04
 50
0
 41
1
 72
0
 11
158858.098215005
 21
222464.422857088
 31
0
100
AcDbText
 73
0
  0
TEXT
  5
107
100
AcDbEntity
  8
LOCCARD
 62
7
100
AcDbText
 10
158858.098215005
 20
222463.972857088
 30
0
 40
0.3
  1
GANG
 50
0
 41
1
 72
0
 11
158858.098215005
 21
222463.972857088
 31
0
100
AcDbText
 73
0
  0
TEXT
  5
108
100
AcDbEntity
  8
LOCCARD
 62
7
100
AcDbText
 10
158858.098215005
 20
222463.522857088
 30
0
 40
0.3
  1

 50
0
 41
1
 72
0
 11
158858.098215005
 21
222463.522857088
 31
0
100
AcDbText
 73
0
  0
TEXT
  5
109
100
AcDbEntity
  8
LOCCARD
 62
7
100
AcDbText
 10
158858.098215005
 20
222463.072857088
 30
0
 40
0.3
  1
Opp: 77.6 m²
 50
0
 41
1
 72
0
 11
158858.098215005
 21
222463.072857088
 31
0
100
AcDbText
 73
0
  0
LINE
  5
10A
100
AcDbEntity
  8
LOCCARD
100
AcDbLine
 10
158857.885215005
 20
222462.855857088
 30
0
 11
158857.885215005
 21
222462.855857088
 31
0
  0
INSERT
  5
138
100
AcDbEntity
  8
LEGEND
100
AcDbBlockReference
  2
$LEGENDRCT
 10
158867.620370698
 20
222459.664285695
 30
0
 41
0.01
 42
0.01
  0
INSERT
  5
155
100
AcDbEntity
  8
TITLE_BLOCK
100
AcDbBlockReference
  2
$TITLE_BLOCK
 10
158867.671633719
 20
222462.401149747
 30
0
 41
0.01
 42
0.01
  0
ENDSEC
  0
SECTION
  2
OBJECTS
  0
DICTIONARY
  5
161
100
AcDbDictionary
  3
ACAD_GROUP
350
1
  3
ACAD_MLINESTYLE
350
2
  0
DICTIONARY
  5
1
100
AcDbDictionary
  0
DICTIONARY
  5
2
100
AcDbDictionary
  0
ENDSEC
  0
EOF
