  0
SECTION
  2
HEADER
  9
$HANDSEED
  5
172
  9
$ACADVER
  1
AC1018
  0
ENDSEC
  0
SECTION
  2
TABLES
  0
TABLE
  2
VPORT
  5
171
100
AcDbSymbolTable
 70
1
  0
VPORT
  5
77
100
AcDbSymbolTableRecord
100
AcDbViewportTableRecord
  2
*Active
 70
0
 10
0
 20
0
 11
1
 21
1
 12
158858.346196561
 22
222470.726455712
 13
0
 23
0
 14
1
 24
1
 15
0
 25
0
 16
0
 26
0
 36
1
 17
0
 27
0
 37
0
 40
20.4797580980137
 41
0.336429755030566
 42
0
 43
0
 44
0
 50
0
 51
0
 71
0
 72
0
 73
0
 74
0
 75
0
 76
0
 77
0
 78
0
  0
ENDTAB
  0
TABLE
  2
LTYPE
  5
169
100
AcDbSymbolTable
 70
3
  0
LTYPE
  5
15D
100
AcDbSymbolTableRecord
100
AcDbLinetypeTableRecord
  2
ByBlock
 70
0
  3

 72
65
 73
0
 40
0
  0
LTYPE
  5
15E
100
AcDbSymbolTableRecord
100
AcDbLinetypeTableRecord
  2
ByLayer
 70
0
  3

 72
65
 73
0
 40
0
  0
ENDTAB
  0
TABLE
  2
LAYER
  5
16F
100
AcDbSymbolTable
 70
23
  0
LAYER
  5
64
100
AcDbSymbolTableRecord
100
AcDbLayerTableRecord
  2
0
 70
0
  6
Continuous
 62
7
390
0
290
1
  0
LAYER
  5
66
100
AcDbSymbolTableRecord
100
AcDbLayerTableRecord
  2
090_MAPPING_Lokaal categorie groep
 70
0
  6
Continuous
420
16711680
390
0
290
1
  0
LAYER
  5
78
100
AcDbSymbolTableRecord
100
AcDbLayerTableRecord
  2
201_Pilaren
 70
0
  6
Continuous
 62
7
390
0
290
1
  0
LAYER
  5
7F
100
AcDbSymbolTableRecord
100
AcDbLayerTableRecord
  2
10_TOTALE_VERDIEPINGSOPPER
 70
0
  6
Continuous
 62
7
390
0
290
1
  0
LAYER
  5
81
100
AcDbSymbolTableRecord
100
AcDbLayerTableRecord
  2
50_DEUR
 70
0
  6
Continuous
 62
7
390
0
290
1
  0
LAYER
  5
8A
100
AcDbSymbolTableRecord
100
AcDbLayerTableRecord
  2
60_RAAM
 70
0
  6
Continuous
 62
7
390
0
290
1
  0
LAYER
  5
9E
100
AcDbSymbolTableRecord
100
AcDbLayerTableRecord
  2
012_Noordpijl
 70
0
  6
Continuous
 62
7
390
0
290
1
  0
LAYER
  5
D9
100
AcDbSymbolTableRecord
100
AcDbLayerTableRecord
  2
LEVEL_AREA
 70
0
  6
Continuous
 62
7
390
0
290
1
  0
LAYER
  5
DB
100
AcDbSymbolTableRecord
100
AcDbLayerTableRecord
  2
GROSS_FLOOR_AREA
 70
0
  6
Continuous
 62
7
390
0
290
1
  0
LAYER
  5
DC
100
AcDbSymbolTableRecord
100
AcDbLayerTableRecord
  2
INTERNAL_FLOOR_AREA
 70
0
  6
Continuous
 62
7
390
0
290
1
  0
LAYER
  5
DD
100
AcDbSymbolTableRecord
100
AcDbLayerTableRecord
  2
NET_FLOOR_AREA
 70
0
  6
Continuous
 62
7
390
0
290
1
  0
LAYER
  5
DE
100
AcDbSymbolTableRecord
100
AcDbLayerTableRecord
  2
LAND
 70
0
  6
Continuous
420
16711680
390
0
290
1
  0
LAYER
  5
DF
100
AcDbSymbolTableRecord
100
AcDbLayerTableRecord
  2
LAND_CARD_ANCHOR
 70
0
  6
Continuous
 62
7
390
0
290
1
  0
LAYER
  5
E0
100
AcDbSymbolTableRecord
100
AcDbLayerTableRecord
  2
LAND_CARD
 70
0
  6
Continuous
 62
7
390
0
290
1
  0
LAYER
  5
E1
100
AcDbSymbolTableRecord
100
AcDbLayerTableRecord
  2
LOCATION
 70
0
  6
Continuous
420
16711680
390
0
290
1
  0
LAYER
  5
E7
100
AcDbSymbolTableRecord
100
AcDbLayerTableRecord
  2
LCANCHOR
 70
0
  6
Continuous
 62
7
390
0
290
1
  0
LAYER
  5
F3
100
AcDbSymbolTableRecord
100
AcDbLayerTableRecord
  2
LOCCARD
 70
0
  6
Continuous
 62
7
390
0
290
1
  0
LAYER
  5
112
100
AcDbSymbolTableRecord
100
AcDbLayerTableRecord
  2
OUTSIDE
 70
0
  6
Continuous
420
16711680
390
0
290
1
  0
LAYER
  5
113
100
AcDbSymbolTableRecord
100
AcDbLayerTableRecord
  2
OUTSIDE_CARD_ANCHOR
 70
0
  6
Continuous
 62
7
390
0
290
1
  0
LAYER
  5
114
100
AcDbSymbolTableRecord
100
AcDbLayerTableRecord
  2
OUTSIDE_CARD
 70
0
  6
Continuous
 62
7
390
0
290
1
  0
LAYER
  5
115
100
AcDbSymbolTableRecord
100
AcDbLayerTableRecord
  2
MAINTOBJECT
 70
0
  6
Continuous
 62
7
390
0
290
1
  0
LAYER
  5
116
100
AcDbSymbolTableRecord
100
AcDbLayerTableRecord
  2
LEGEND
 70
0
  6
Continuous
420
16711680
390
0
290
1
  0
LAYER
  5
140
100
AcDbSymbolTableRecord
100
AcDbLayerTableRecord
  2
TITLE_BLOCK
 70
0
  6
Continuous
 62
7
390
0
290
1
  0
ENDTAB
  0
TABLE
  2
STYLE
  5
170
100
AcDbSymbolTable
 70
1
  0
STYLE
  5
167
100
AcDbSymbolTableRecord
100
AcDbTextStyleTableRecord
  2
Standard
 70
0
 40
0.0
  3
ARIAL.TTF
  0
ENDTAB
  0
TABLE
  2
VIEW
  5
16D
100
AcDbSymbolTable
 70
0
  0
ENDTAB
  0
TABLE
  2
UCS
  5
16C
100
AcDbSymbolTable
 70
0
  0
ENDTAB
  0
TABLE
  2
APPID
  5
16A
100
AcDbSymbolTable
 70
1
  0
APPID
  5
15F
100
AcDbSymbolTableRecord
100
AcDbRegAppTableRecord
  2
ACAD
 70
0
  0
ENDTAB
  0
TABLE
  2
DIMSTYLE
  5
16E
100
AcDbSymbolTable
 70
1
100
AcDbDimStyleTable
  0
DIMSTYLE
105
166
100
AcDbSymbolTableRecord
100
AcDbDimStyleTableRecord
  2
ISO-25
 70
0
  0
ENDTAB
  0
TABLE
  2
BLOCK_RECORD
  5
16B
100
AcDbSymbolTable
 70
8
  0
BLOCK_RECORD
  5
BE
100
AcDbSymbolTableRecord
100
AcDbBlockTableRecord
  2
*U0
 70
0
  0
BLOCK_RECORD
  5
CC
100
AcDbSymbolTableRecord
100
AcDbBlockTableRecord
  2
*U1
 70
0
  0
BLOCK_RECORD
  5
D7
100
AcDbSymbolTableRecord
100
AcDbBlockTableRecord
  2
8001
 70
0
  0
BLOCK_RECORD
  5
ED
100
AcDbSymbolTableRecord
100
AcDbBlockTableRecord
  2
$LCANCHOR
 70
0
  0
BLOCK_RECORD
  5
13E
100
AcDbSymbolTableRecord
100
AcDbBlockTableRecord
  2
$LEGENDRCT
 70
0
  0
BLOCK_RECORD
  5
15B
100
AcDbSymbolTableRecord
100
AcDbBlockTableRecord
  2
$TITLE_BLOCK
 70
0
  0
BLOCK_RECORD
  5
162
100
AcDbSymbolTableRecord
100
AcDbBlockTableRecord
  2
*Model_Space
 70
0
  0
BLOCK_RECORD
  5
165
100
AcDbSymbolTableRecord
100
AcDbBlockTableRecord
  2
*Paper_Space
 70
0
  0
ENDTAB
  0
ENDSEC
  0
SECTION
  2
BLOCKS
  0
BLOCK
  5
AA
100
AcDbEntity
100
AcDbBlockBegin
  2
*U0
 70
1
 10
0
 20
0
 30
0
  0
SOLID
  5
AC
100
AcDbEntity
  8
0
100
AcDbTrace
 10
-12187.5
 20
-51986.9448250662
 30
0
 11
-12187.5
 21
-50625
 31
0
 13
-2.84E-10
 23
-51986.9448250662
 33
0
 12
-2.84E-10
 22
-51986.9448250662
 32
0
  0
SOLID
  5
AD
100
AcDbEntity
  8
0
100
AcDbTrace
 10
-2.84E-10
 20
-51986.9448250662
 30
0
 11
-12187.5
 21
-50625
 31
0
 13
-2.84E-10
 23
-50625
 33
0
 12
-2.84E-10
 22
-50625
 32
0
  0
SOLID
  5
AE
100
AcDbEntity
  8
0
100
AcDbTrace
 10
-2.84E-10
 20
-51986.9448250662
 30
0
 11
-2.84E-10
 21
-50625
 31
0
 13
9000.28121710449
 23
-51986.9448250662
 33
0
 12
9000.28121710449
 22
-51986.9448250662
 32
0
  0
SOLID
  5
AF
100
AcDbEntity
  8
0
100
AcDbTrace
 10
9000.28121710449
 20
-51986.9448250662
 30
0
 11
-2.84E-10
 21
-50625
 31
0
 13
9000.28121710449
 23
-50625
 33
0
 12
9000.28121710449
 22
-50625
 32
0
  0
SOLID
  5
B0
100
AcDbEntity
  8
0
100
AcDbTrace
 10
9000.28121710449
 20
16871.2504386051
 30
0
 11
-2.84E-10
 21
136874.999999997
 31
0
 13
9000.28121710449
 23
27424.5745807667
 33
0
 12
9000.28121710449
 22
27424.5745807667
 32
0
  0
SOLID
  5
B1
100
AcDbEntity
  8
0
100
AcDbTrace
 10
9000.28121710449
 20
-51986.9448250662
 30
0
 11
9000.28121710449
 21
-50625
 31
0
 13
9868.09771659182
 23
-51986.9448250662
 33
0
 12
9868.09771659182
 22
-51986.9448250662
 32
0
  0
SOLID
  5
B2
100
AcDbEntity
  8
0
100
AcDbTrace
 10
9868.09771659182
 20
-51986.9448250662
 30
0
 11
9000.28121710449
 21
-50625
 31
0
 13
9868.09771659182
 23
-50625
 33
0
 12
9868.09771659182
 22
-50625
 32
0
  0
SOLID
  5
B3
100
AcDbEntity
  8
0
100
AcDbTrace
 10
9000.28121710449
 20
16871.250438605
 30
0
 11
9000.28121710449
 21
27424.5745807667
 31
0
 13
9868.09771659182
 23
16871.250438605
 33
0
 12
9868.09771659182
 22
16871.250438605
 32
0
  0
SOLID
  5
B4
100
AcDbEntity
  8
0
100
AcDbTrace
 10
9868.09771659182
 20
-51986.9448250662
 30
0
 11
9868.09771659182
 21
-50625
 31
0
 13
11531.5312171047
 23
-51986.9448250662
 33
0
 12
11531.5312171047
 22
-51986.9448250662
 32
0
  0
SOLID
  5
B5
100
AcDbEntity
  8
0
100
AcDbTrace
 10
11531.5312171047
 20
-51986.9448250662
 30
0
 11
9868.09771659182
 21
-50625
 31
0
 13
11531.5312171047
 23
-50625
 33
0
 12
11531.5312171047
 22
-50625
 32
0
  0
SOLID
  5
B6
100
AcDbEntity
  8
0
100
AcDbTrace
 10
11531.5312171047
 20
-51986.9448250662
 30
0
 11
11531.5312171047
 21
-50625
 31
0
 13
12643.4134809094
 23
-51986.9448250662
 33
0
 12
12643.4134809094
 22
-51986.9448250662
 32
0
  0
SOLID
  5
B7
100
AcDbEntity
  8
0
100
AcDbTrace
 10
12643.4134809094
 20
-51986.9448250662
 30
0
 11
11531.5312171047
 21
-50625
 31
0
 13
12643.4134809094
 23
-50625
 33
0
 12
12643.4134809094
 22
-50625
 32
0
  0
SOLID
  5
B8
100
AcDbEntity
  8
0
100
AcDbTrace
 10
12643.4134809094
 20
-31703.846412124
 30
0
 11
11531.5312171047
 21
-16878.749561395
 31
0
 13
12643.4134809094
 23
-16878.749561395
 33
0
 12
12643.4134809094
 22
-16878.749561395
 32
0
  0
SOLID
  5
B9
100
AcDbEntity
  8
0
100
AcDbTrace
 10
12643.4134809094
 20
-51986.9448250662
 30
0
 11
12643.4134809094
 21
-50625
 31
0
 13
14062.5
 23
-51986.9448250662
 33
0
 12
14062.5
 22
-51986.9448250662
 32
0
  0
SOLID
  5
BA
100
AcDbEntity
  8
0
100
AcDbTrace
 10
14062.5
 20
-51986.9448250662
 30
0
 11
12643.4134809094
 21
-50625
 31
0
 13
14062.5
 23
-50625
 33
0
 12
14062.5
 22
-50625
 32
0
  0
SOLID
  5
BB
100
AcDbEntity
  8
0
100
AcDbTrace
 10
12643.4134809094
 20
-31703.846412124
 30
0
 11
12643.4134809094
 21
-16878.749561395
 31
0
 13
14062.5
 23
-50625
 33
0
 12
14062.5
 22
-50625
 32
0
  0
SOLID
  5
BC
100
AcDbEntity
  8
0
100
AcDbTrace
 10
14062.5
 20
-50625
 30
0
 11
12643.4134809094
 21
-16878.749561395
 31
0
 13
14062.5
 23
-34135.9462505372
 33
0
 12
14062.5
 22
-34135.9462505372
 32
0
  0
SOLID
  5
BD
100
AcDbEntity
  8
0
100
AcDbTrace
 10
14062.5
 20
-51986.9448250662
 30
0
 11
14062.5
 21
-34135.9462505372
 31
0
 13
15530.4157852653
 23
-51986.9448250662
 33
0
 12
15530.4157852653
 22
-51986.9448250662
 32
0
  0
ENDBLK
  5
AB
100
AcDbEntity
100
AcDbBlockEnd
  0
BLOCK
  5
C0
100
AcDbEntity
100
AcDbBlockBegin
  2
*U1
 70
1
 10
0
 20
0
 30
0
  0
SOLID
  5
C2
100
AcDbEntity
  8
0
100
AcDbTrace
 10
-16885.0168140402
 20
-16878.7495613947
 30
0
 11
-16885.0168140402
 21
16871.250438605
 31
0
 13
-5635.0168140402
 23
-16878.7495613947
 33
0
 12
-5635.0168140402
 22
-16878.7495613947
 32
0
  0
SOLID
  5
C3
100
AcDbEntity
  8
0
100
AcDbTrace
 10
-5635.0168140402
 20
-16878.7495613947
 30
0
 11
-16885.0168140402
 21
16871.250438605
 31
0
 13
-5635.0168140402
 23
16871.2504386053
 33
0
 12
-5635.0168140402
 22
16871.2504386053
 32
0
  0
SOLID
  5
C4
100
AcDbEntity
  8
0
100
AcDbTrace
 10
-5635.0168140402
 20
-3.74956139467
 30
0
 11
-5635.0168140402
 21
16871.2504386053
 31
0
 13
-1885.01681403999
 23
-6753.749561395
 33
0
 12
-1885.01681403999
 22
-6753.749561395
 32
0
  0
SOLID
  5
C5
100
AcDbEntity
  8
0
100
AcDbTrace
 10
-1885.01681403999
 20
-6753.749561395
 30
0
 11
-5635.0168140402
 21
16871.2504386053
 31
0
 13
-1885.01681403999
 23
16871.2504386053
 33
0
 12
-1885.01681403999
 22
16871.2504386053
 32
0
  0
SOLID
  5
C6
100
AcDbEntity
  8
0
100
AcDbTrace
 10
-1885.01681403999
 20
-6753.749561395
 30
0
 11
-1885.01681403999
 21
16871.2504386053
 31
0
 13
3739.9831859598
 23
-16878.7495613945
 33
0
 12
3739.9831859598
 22
-16878.7495613945
 32
0
  0
SOLID
  5
C7
100
AcDbEntity
  8
0
100
AcDbTrace
 10
3739.9831859598
 20
-16878.7495613945
 30
0
 11
-1885.01681403999
 21
16871.2504386053
 31
0
 13
3739.9831859598
 23
6746.2504386055
 33
0
 12
3739.9831859598
 22
6746.2504386055
 32
0
  0
SOLID
  5
C8
100
AcDbEntity
  8
0
100
AcDbTrace
 10
3739.9831859598
 20
-16878.7495613947
 30
0
 11
3739.9831859598
 21
6746.2504386055
 31
0
 13
7489.98318595966
 23
-16878.7495613947
 33
0
 12
7489.98318595966
 22
-16878.7495613947
 32
0
  0
SOLID
  5
C9
100
AcDbEntity
  8
0
100
AcDbTrace
 10
7489.98318595966
 20
-16878.7495613947
 30
0
 11
3739.9831859598
 21
6746.2504386055
 31
0
 13
7489.98318595966
 23
-3.749561394386
 33
0
 12
7489.98318595966
 22
-3.749561394386
 32
0
  0
SOLID
  5
CA
100
AcDbEntity
  8
0
100
AcDbTrace
 10
7489.98318595966
 20
-16878.7495613947
 30
0
 11
7489.98318595966
 21
16871.2504386053
 31
0
 13
18739.9831859598
 23
-16878.7495613947
 33
0
 12
18739.9831859598
 22
-16878.7495613947
 32
0
  0
SOLID
  5
CB
100
AcDbEntity
  8
0
100
AcDbTrace
 10
18739.9831859598
 20
-16878.7495613947
 30
0
 11
7489.98318595966
 21
16871.2504386053
 31
0
 13
18739.9831859598
 23
16871.2504386053
 33
0
 12
18739.9831859598
 22
16871.2504386053
 32
0
  0
ENDBLK
  5
C1
100
AcDbEntity
100
AcDbBlockEnd
  0
BLOCK
  5
9F
100
AcDbEntity
100
AcDbBlockBegin
  2
8001
 70
0
 10
0
 20
0
 30
0
  0
LINE
  5
A1
100
AcDbEntity
  8
0
100
AcDbLine
 10
7489.9831859598
 20
-3.74956139467
 30
0
 11
-1885.0168140402
 21
16871.2504386053
 31
0
  0
LINE
  5
A2
100
AcDbEntity
  8
0
100
AcDbLine
 10
7489.9831859598
 20
-3.74956139467
 30
0
 11
7489.9831859598
 21
16871.2504386053
 31
0
  0
LINE
  5
A3
100
AcDbEntity
  8
0
100
AcDbLine
 10
18739.9831859598
 20
-16878.7495613947
 30
0
 11
18739.9831859598
 21
16871.2504386053
 31
0
  0
LINE
  5
A4
100
AcDbEntity
  8
0
100
AcDbLine
 10
-16885.0168140402
 20
-16878.7495613947
 30
0
 11
-16885.0168140402
 21
16871.2504386053
 31
0
  0
ARC
  5
A5
100
AcDbEntity
  8
0
100
AcDbCircle
 10
0
 20
0
 30
0
 40
35625
100
AcDbArc
 50
102.410268458925
 51
249.011424883437
  0
LWPOLYLINE
  5
A6
100
AcDbEntity
  8
0
100
AcDbPolyline
 90
3
 70
0
 10
-14062.5
 20
-50625
 40
0
 41
0
 10
14062.5
 20
-50625
 40
0
 41
0
 10
0
 20
136875
 40
0
 41
0
  0
LWPOLYLINE
  5
A7
100
AcDbEntity
  8
0
100
AcDbPolyline
 90
3
 70
0
 10
-12187.5
 20
-51986.9448250662
 40
0
 41
0
 10
15530.4157852652
 20
-51986.9448250662
 40
0
 41
0
 10
0
 20
136875
 40
0
 41
0
  0
LINE
  5
A8
100
AcDbEntity
  8
0
100
AcDbLine
 10
-14062.5
 20
-50625
 30
0
 11
0
 21
136875
 31
0
  0
ARC
  5
A9
100
AcDbEntity
  8
0
100
AcDbCircle
 10
0
 20
0
 30
0
 40
35625
100
AcDbArc
 50
293.05448853871
 51
76.3474023236976
  0
INSERT
  5
BF
100
AcDbEntity
  8
0
100
AcDbBlockReference
  2
*U0
 10
0
 20
0
 30
0
  0
INSERT
  5
CD
100
AcDbEntity
  8
0
100
AcDbBlockReference
  2
*U1
 10
0
 20
0
 30
0
  0
LINE
  5
CE
100
AcDbEntity
  8
0
100
AcDbLine
 10
3739.9831859598
 20
-16878.7495613947
 30
0
 11
18739.9831859598
 21
-16878.7495613947
 31
0
  0
LINE
  5
CF
100
AcDbEntity
  8
0
100
AcDbLine
 10
-12187.5
 20
-50625
 30
0
 11
-12187.5
 21
-51986.9448250662
 31
0
  0
LINE
  5
D0
100
AcDbEntity
  8
0
100
AcDbLine
 10
-30000
 20
0
 30
0
 11
-43125
 21
0
 31
0
  0
LINE
  5
D1
100
AcDbEntity
  8
0
100
AcDbLine
 10
-5635.0168140402
 20
-16878.7495613947
 30
0
 11
-16885.0168140402
 21
-16878.7495613947
 31
0
  0
LINE
  5
D2
100
AcDbEntity
  8
0
100
AcDbLine
 10
-5635.0168140402
 20
-3.74956139467
 30
0
 11
3739.9831859598
 21
-16878.7495613947
 31
0
  0
LINE
  5
D3
100
AcDbEntity
  8
0
100
AcDbLine
 10
-5635.0168140402
 20
-16878.7495613947
 30
0
 11
-5635.0168140402
 21
-3.74956139467
 31
0
  0
LINE
  5
D4
100
AcDbEntity
  8
0
100
AcDbLine
 10
30000
 20
0
 30
0
 11
43125
 21
0
 31
0
  0
LINE
  5
D5
100
AcDbEntity
  8
0
100
AcDbLine
 10
7489.9831859598
 20
16871.2504386053
 30
0
 11
18739.9831859598
 21
16871.2504386053
 31
0
  0
LINE
  5
D6
100
AcDbEntity
  8
0
100
AcDbLine
 10
-16885.0168140402
 20
16871.2504386053
 30
0
 11
-1885.0168140402
 21
16871.2504386053
 31
0
  0
ENDBLK
  5
A0
100
AcDbEntity
100
AcDbBlockEnd
  0
BLOCK
  5
E8
100
AcDbEntity
100
AcDbBlockBegin
  2
$LCANCHOR
 70
0
 10
0
 20
0
 30
0
  0
LINE
  5
EA
100
AcDbEntity
  8
0
100
AcDbLine
 10
-1
 20
0
 30
0
 11
1
 21
0
 31
0
  0
LINE
  5
EB
100
AcDbEntity
  8
0
100
AcDbLine
 10
0
 20
-1
 30
0
 11
0
 21
1
 31
0
  0
LWPOLYLINE
  5
EC
100
AcDbEntity
  8
0
100
AcDbPolyline
 90
5
 70
1
 10
0
 20
10
 40
0
 41
0
 10
10
 20
0
 40
0
 41
0
 10
0
 20
-10
 40
0
 41
0
 10
-10
 20
0
 40
0
 41
0
 10
0
 20
10
 40
0
 41
0
  0
ENDBLK
  5
E9
100
AcDbEntity
100
AcDbBlockEnd
  0
BLOCK
  5
117
100
AcDbEntity
100
AcDbBlockBegin
  2
$LEGENDRCT
 70
0
 10
0
 20
0
 30
0
  0
LINE
  5
119
100
AcDbEntity
  8
0
100
AcDbLine
 10
0
 20
50
 30
0
 11
0
 21
-210
 31
0
  0
LINE
  5
11A
100
AcDbEntity
  8
0
100
AcDbLine
 10
393.714254523023
 20
0
 30
0
 11
393.714254523023
 21
-210
 31
0
  0
LINE
  5
11B
100
AcDbEntity
  8
0
100
AcDbLine
 10
525.858304020618
 20
0
 30
0
 11
525.858304020618
 21
-210
 31
0
  0
LINE
  5
11C
100
AcDbEntity
  8
0
100
AcDbLine
 10
747.174014322335
 20
0
 30
0
 11
747.174014322335
 21
-210
 31
0
  0
LINE
  5
11D
100
AcDbEntity
  8
0
100
AcDbLine
 10
1004.1583889457
 20
50
 30
0
 11
1004.1583889457
 21
-210
 31
0
  0
LINE
  5
11E
100
AcDbEntity
  8
0
100
AcDbLine
 10
0
 20
-210
 30
0
 11
1004.1583889457
 21
-210
 31
0
  0
LINE
  5
11F
100
AcDbEntity
  8
0
100
AcDbLine
 10
0
 20
0
 30
0
 11
1004.1583889457
 21
0
 31
0
  0
LINE
  5
120
100
AcDbEntity
  8
0
100
AcDbLine
 10
0
 20
-40
 30
0
 11
1004.1583889457
 21
-40
 31
0
  0
LINE
  5
121
100
AcDbEntity
  8
0
100
AcDbLine
 10
0
 20
-170
 30
0
 11
1004.1583889457
 21
-170
 31
0
  0
LINE
  5
122
100
AcDbEntity
  8
0
100
AcDbLine
 10
0
 20
50
 30
0
 11
1004.1583889457
 21
50
 31
0
  0
TEXT
  5
123
100
AcDbEntity
  8
0
420
16711680
100
AcDbText
 10
20
 20
-10
 30
0
 40
20
  1
Lokaalcategoriegroepen
 50
0
 41
1
 39
2
 72
0
 11
20
 21
-10
 31
0
100
AcDbText
 73
3
  0
HATCH
  5
124
100
AcDbEntity
  8
0
420
12510413
100
AcDbHatch
 10
0.0
 20
0.0
 30
0.0
210
0.0
220
0.0
230
1.0
  2
SOLID
 70
1
 71
0
 91
1
 92
22
 72
1
 73
1
 93
4
 10
20
 20
-50
 42
0
 10
20
 20
-70
 42
0
 10
60
 20
-70
 42
0
 10
60
 20
-50
 42
0
 97
0
 75
0
 76
1
 47
0.0
 98
1
 10
0.0
 20
0.0
  0
LWPOLYLINE
  5
125
100
AcDbEntity
  8
0
100
AcDbPolyline
 90
5
 70
1
 10
20
 20
-50
 40
0
 41
0
 10
20
 20
-70
 40
0
 41
0
 10
60
 20
-70
 40
0
 41
0
 10
60
 20
-50
 40
0
 41
0
 10
20
 20
-50
 40
0
 41
0
  0
HATCH
  5
126
100
AcDbEntity
  8
0
420
12713983
100
AcDbHatch
 10
0.0
 20
0.0
 30
0.0
210
0.0
220
0.0
230
1.0
  2
SOLID
 70
1
 71
0
 91
1
 92
22
 72
1
 73
1
 93
4
 10
20
 20
-90
 42
0
 10
20
 20
-110
 42
0
 10
60
 20
-110
 42
0
 10
60
 20
-90
 42
0
 97
0
 75
0
 76
1
 47
0.0
 98
1
 10
0.0
 20
0.0
  0
LWPOLYLINE
  5
127
100
AcDbEntity
  8
0
100
AcDbPolyline
 90
5
 70
1
 10
20
 20
-90
 40
0
 41
0
 10
20
 20
-110
 40
0
 41
0
 10
60
 20
-110
 40
0
 41
0
 10
60
 20
-90
 40
0
 41
0
 10
20
 20
-90
 40
0
 41
0
  0
HATCH
  5
128
100
AcDbEntity
  8
0
420
16761312
100
AcDbHatch
 10
0.0
 20
0.0
 30
0.0
210
0.0
220
0.0
230
1.0
  2
SOLID
 70
1
 71
0
 91
1
 92
22
 72
1
 73
1
 93
4
 10
20
 20
-130
 42
0
 10
20
 20
-150
 42
0
 10
60
 20
-150
 42
0
 10
60
 20
-130
 42
0
 97
0
 75
0
 76
1
 47
0.0
 98
1
 10
0.0
 20
0.0
  0
LWPOLYLINE
  5
129
100
AcDbEntity
  8
0
100
AcDbPolyline
 90
5
 70
1
 10
20
 20
-130
 40
0
 41
0
 10
20
 20
-150
 40
0
 41
0
 10
60
 20
-150
 40
0
 41
0
 10
60
 20
-130
 40
0
 41
0
 10
20
 20
-130
 40
0
 41
0
  0
TEXT
  5
12A
100
AcDbEntity
  8
0
420
16711680
100
AcDbText
 10
80
 20
-50
 30
0
 40
20
  1
Circulatie
 50
0
 41
1
 72
0
 11
80
 21
-50
 31
0
100
AcDbText
 73
3
  0
TEXT
  5
12B
100
AcDbEntity
  8
0
420
16711680
100
AcDbText
 10
80
 20
-90
 30
0
 40
20
  1
Internaat
 50
0
 41
1
 72
0
 11
80
 21
-90
 31
0
100
AcDbText
 73
3
  0
TEXT
  5
12C
100
AcDbEntity
  8
0
420
16711680
100
AcDbText
 10
80
 20
-130
 30
0
 40
20
  1
Sanitair
 50
0
 41
1
 72
0
 11
80
 21
-130
 31
0
100
AcDbText
 73
3
  0
TEXT
  5
12D
100
AcDbEntity
  8
0
420
16711680
100
AcDbText
 10
281.570205025429
 20
-180
 30
0
 40
20
  1
Totaal
 50
0
 41
1
 72
0
 11
281.570205025429
 21
-180
 31
0
100
AcDbText
 73
3
  0
TEXT
  5
12E
100
AcDbEntity
  8
0
420
16711680
100
AcDbText
 10
413.714254523023
 20
-10
 30
0
 40
20
  1
Aantal
 50
0
 41
1
 39
2
 72
0
 11
413.714254523023
 21
-10
 31
0
100
AcDbText
 73
3
  0
TEXT
  5
12F
100
AcDbEntity
  8
0
420
16711680
100
AcDbText
 10
488.023971859793
 20
-50
 30
0
 40
20
  1
1
 50
0
 41
1
 72
0
 11
488.023971859793
 21
-50
 31
0
100
AcDbText
 73
3
  0
TEXT
  5
130
100
AcDbEntity
  8
0
420
16711680
100
AcDbText
 10
488.023971859793
 20
-90
 30
0
 40
20
  1
3
 50
0
 41
1
 72
0
 11
488.023971859793
 21
-90
 31
0
100
AcDbText
 73
3
  0
TEXT
  5
131
100
AcDbEntity
  8
0
420
16711680
100
AcDbText
 10
488.023971859793
 20
-130
 30
0
 40
20
  1
1
 50
0
 41
1
 72
0
 11
488.023971859793
 21
-130
 31
0
100
AcDbText
 73
3
  0
TEXT
  5
132
100
AcDbEntity
  8
0
420
16711680
100
AcDbText
 10
488.023971859793
 20
-180
 30
0
 40
20
  1
5
 50
0
 41
1
 72
0
 11
488.023971859793
 21
-180
 31
0
100
AcDbText
 73
3
  0
TEXT
  5
133
100
AcDbEntity
  8
0
420
16711680
100
AcDbText
 10
545.858304020618
 20
-10
 30
0
 40
20
  1
Oppervlakte
 50
0
 41
1
 39
2
 72
0
 11
545.858304020618
 21
-10
 31
0
100
AcDbText
 73
3
  0
TEXT
  5
134
100
AcDbEntity
  8
0
420
16711680
100
AcDbText
 10
602.333689196562
 20
-50
 30
0
 40
20
  1
25.69 m²
 50
0
 41
1
 72
0
 11
602.333689196562
 21
-50
 31
0
100
AcDbText
 73
3
  0
TEXT
  5
135
100
AcDbEntity
  8
0
420
16711680
100
AcDbText
 10
602.333689196562
 20
-90
 30
0
 40
20
  1
62.74 m²
 50
0
 41
1
 72
0
 11
602.333689196562
 21
-90
 31
0
100
AcDbText
 73
3
  0
TEXT
  5
136
100
AcDbEntity
  8
0
420
16711680
100
AcDbText
 10
602.333689196562
 20
-130
 30
0
 40
20
  1
22.87 m²
 50
0
 41
1
 72
0
 11
602.333689196562
 21
-130
 31
0
100
AcDbText
 73
3
  0
TEXT
  5
137
100
AcDbEntity
  8
0
420
16711680
100
AcDbText
 10
584.499357035738
 20
-180
 30
0
 40
20
  1
111.30 m²
 50
0
 41
1
 72
0
 11
584.499357035738
 21
-180
 31
0
100
AcDbText
 73
3
  0
TEXT
  5
138
100
AcDbEntity
  8
0
420
16711680
100
AcDbText
 10
767.174014322335
 20
-10
 30
0
 40
20
  1
Oppervlakte %
 50
0
 41
1
 39
2
 72
0
 11
767.174014322335
 21
-10
 31
0
100
AcDbText
 73
3
  0
TEXT
  5
139
100
AcDbEntity
  8
0
420
16711680
100
AcDbText
 10
877.152395980754
 20
-50
 30
0
 40
20
  1
23.09%
 50
0
 41
1
 72
0
 11
877.152395980754
 21
-50
 31
0
100
AcDbText
 73
3
  0
TEXT
  5
13A
100
AcDbEntity
  8
0
420
16711680
100
AcDbText
 10
877.152395980754
 20
-90
 30
0
 40
20
  1
56.37%
 50
0
 41
1
 72
0
 11
877.152395980754
 21
-90
 31
0
100
AcDbText
 73
3
  0
TEXT
  5
13B
100
AcDbEntity
  8
0
420
16711680
100
AcDbText
 10
877.152395980754
 20
-130
 30
0
 40
20
  1
20.55%
 50
0
 41
1
 72
0
 11
877.152395980754
 21
-130
 31
0
100
AcDbText
 73
3
  0
TEXT
  5
13C
100
AcDbEntity
  8
0
420
16711680
100
AcDbText
 10
859.31806381993
 20
-180
 30
0
 40
20
  1
100.00%
 50
0
 41
1
 72
0
 11
859.31806381993
 21
-180
 31
0
100
AcDbText
 73
3
  0
TEXT
  5
13D
100
AcDbEntity
  8
0
420
16711680
100
AcDbText
 10
282.122431156013
 20
40
 30
0
 40
30
  1
Lokaal categorie groep
 50
0
 41
1
 39
2
 72
0
 11
282.122431156013
 21
40
 31
0
100
AcDbText
 73
3
  0
ENDBLK
  5
118
100
AcDbEntity
100
AcDbBlockEnd
  0
BLOCK
  5
141
100
AcDbEntity
100
AcDbBlockBegin
  2
$TITLE_BLOCK
 70
0
 10
0
 20
0
 30
0
  0
LWPOLYLINE
  5
143
100
AcDbEntity
  8
0
100
AcDbPolyline
 90
5
 70
1
 10
0
 20
0
 40
0
 41
0
 10
0
 20
-190
 40
0
 41
0
 10
667
 20
-190
 40
0
 41
0
 10
667
 20
0
 40
0
 41
0
 10
0
 20
0
 40
0
 41
0
  0
TEXT
  5
144
100
AcDbEntity
  8
0
 62
7
100
AcDbText
 10
20
 20
-10
 30
0
 40
20
  1
Tekening
 50
0
 41
1
 72
0
 11
20
 21
-10
 31
0
100
AcDbText
 73
3
  0
TEXT
  5
145
100
AcDbEntity
  8
0
 62
7
100
AcDbText
 10
20
 20
-40
 30
0
 40
20
  1
Verdieping
 50
0
 41
1
 72
0
 11
20
 21
-40
 31
0
100
AcDbText
 73
3
  0
TEXT
  5
146
100
AcDbEntity
  8
0
 62
7
100
AcDbText
 10
20
 20
-70
 30
0
 40
20
  1
Gebouw
 50
0
 41
1
 72
0
 11
20
 21
-70
 31
0
100
AcDbText
 73
3
  0
TEXT
  5
147
100
AcDbEntity
  8
0
 62
7
100
AcDbText
 10
20
 20
-100
 30
0
 40
20
  1
Site
 50
0
 41
1
 72
0
 11
20
 21
-100
 31
0
100
AcDbText
 73
3
  0
TEXT
  5
148
100
AcDbEntity
  8
0
 62
7
100
AcDbText
 10
20
 20
-130
 30
0
 40
20
  1
Regio
 50
0
 41
1
 72
0
 11
20
 21
-130
 31
0
100
AcDbText
 73
3
  0
TEXT
  5
149
100
AcDbEntity
  8
0
 62
7
100
AcDbText
 10
20
 20
-160
 30
0
 40
20
  1
Vastgoedeenheid
 50
0
 41
1
 72
0
 11
20
 21
-160
 31
0
100
AcDbText
 73
3
  0
LINE
  5
14A
100
AcDbEntity
  8
0
100
AcDbLine
 10
0
 20
-35
 30
0
 11
250
 21
-35
 31
0
  0
LINE
  5
14B
100
AcDbEntity
  8
0
100
AcDbLine
 10
0
 20
-65
 30
0
 11
250
 21
-65
 31
0
  0
LINE
  5
14C
100
AcDbEntity
  8
0
100
AcDbLine
 10
0
 20
-95
 30
0
 11
250
 21
-95
 31
0
  0
LINE
  5
14D
100
AcDbEntity
  8
0
100
AcDbLine
 10
0
 20
-125
 30
0
 11
250
 21
-125
 31
0
  0
LINE
  5
14E
100
AcDbEntity
  8
0
100
AcDbLine
 10
0
 20
-155
 30
0
 11
250
 21
-155
 31
0
  0
TEXT
  5
14F
100
AcDbEntity
  8
0
 62
7
100
AcDbText
 10
270
 20
-10
 30
0
 40
20
  1
31202G02 V0
 50
0
 41
1
 72
0
 11
270
 21
-10
 31
0
100
AcDbText
 73
3
  0
TEXT
  5
150
100
AcDbEntity
  8
0
 62
7
100
AcDbText
 10
270
 20
-40
 30
0
 40
20
  1
31202G02 V0
 50
0
 41
1
 72
0
 11
270
 21
-40
 31
0
100
AcDbText
 73
3
  0
TEXT
  5
151
100
AcDbEntity
  8
0
 62
7
100
AcDbText
 10
270
 20
-70
 30
0
 40
20
  1
31202G02
 50
0
 41
1
 72
0
 11
270
 21
-70
 31
0
100
AcDbText
 73
3
  0
TEXT
  5
152
100
AcDbEntity
  8
0
 62
7
100
AcDbText
 10
270
 20
-100
 30
0
 40
20
  1
BRASSCHAAT Lage Kaart 538
 50
0
 41
1
 72
0
 11
270
 21
-100
 31
0
100
AcDbText
 73
3
  0
TEXT
  5
153
100
AcDbEntity
  8
0
 62
7
100
AcDbText
 10
270
 20
-130
 30
0
 40
20
  1
SGR 03 INVENTO
 50
0
 41
1
 72
0
 11
270
 21
-130
 31
0
100
AcDbText
 73
3
  0
TEXT
  5
154
100
AcDbEntity
  8
0
 62
7
100
AcDbText
 10
270
 20
-160
 30
0
 40
20
  1

 50
0
 41
1
 72
0
 11
270
 21
-160
 31
0
100
AcDbText
 73
3
  0
LINE
  5
155
100
AcDbEntity
  8
0
100
AcDbLine
 10
250
 20
-35
 30
0
 11
667
 21
-35
 31
0
  0
LINE
  5
156
100
AcDbEntity
  8
0
100
AcDbLine
 10
250
 20
-65
 30
0
 11
667
 21
-65
 31
0
  0
LINE
  5
157
100
AcDbEntity
  8
0
100
AcDbLine
 10
250
 20
-95
 30
0
 11
667
 21
-95
 31
0
  0
LINE
  5
158
100
AcDbEntity
  8
0
100
AcDbLine
 10
250
 20
-125
 30
0
 11
667
 21
-125
 31
0
  0
LINE
  5
159
100
AcDbEntity
  8
0
100
AcDbLine
 10
250
 20
-155
 30
0
 11
667
 21
-155
 31
0
  0
LINE
  5
15A
100
AcDbEntity
  8
0
100
AcDbLine
 10
250
 20
0
 30
0
 11
250
 21
-190
 31
0
  0
ENDBLK
  5
142
100
AcDbEntity
100
AcDbBlockEnd
  0
BLOCK
  5
160
100
AcDbEntity
100
AcDbBlockBegin
  2
*Model_Space
 70
1
 10
0
 20
0
 30
0
  0
ENDBLK
  5
161
100
AcDbEntity
100
AcDbBlockEnd
  0
BLOCK
  5
163
100
AcDbEntity
100
AcDbBlockBegin
  2
*Paper_Space
 70
1
 10
0
 20
0
 30
0
  0
ENDBLK
  5
164
100
AcDbEntity
100
AcDbBlockEnd
  0
ENDSEC
  0
SECTION
  2
ENTITIES
  0
HATCH
  5
67
100
AcDbEntity
  8
090_MAPPING_Lokaal categorie groep
420
12510413
100
AcDbHatch
 10
0.0
 20
0.0
 30
0.0
210
0.0
220
0.0
230
1.0
  2
SOLID
 70
1
 71
0
 91
1
 92
22
 72
1
 73
1
 93
50
 10
158861.060806205
 20
222464.261571023
 42
0
 10
158862.883633683
 20
222465.466094302
 42
0
 10
158862.918230896
 20
222465.41618858
 42
0
 10
158863.901878917
 20
222466.07454532
 42
0
 10
158863.812603039
 20
222466.208759498
 42
0
 10
158864.518206678
 20
222466.679491288
 42
0
 10
158864.613371977
 20
222466.536423163
 42
0
 10
158865.355216723
 20
222467.029879534
 42
0
 10
158865.259381958
 20
222467.17395411
 42
0
 10
158865.933474447
 20
222467.623663758
 42
0
 10
158866.029918086
 20
222467.478673824
 42
0
 10
158867.837169655
 20
222468.680811879
 42
0
 10
158867.742335347
 20
222468.823382403
 42
0
 10
158868.442663759
 20
222469.288405542
 42
0
 10
158868.537121032
 20
222469.146401839
 42
0
 10
158869.283762801
 20
222469.643049069
 42
0
 10
158869.189707714
 20
222469.78444814
 42
0
 10
158869.875670808
 20
222470.239932604
 42
0
 10
158869.969356594
 20
222470.099088728
 42
0
 10
158871.810711638
 20
222471.323911552
 42
0
 10
158871.719018301
 20
222471.461760052
 42
0
 10
158872.396729134
 20
222471.912499527
 42
0
 10
158872.488396353
 20
222471.774690292
 42
0
 10
158873.230289529
 20
222472.268178877
 42
0
 10
158873.138650902
 20
222472.405945127
 42
0
 10
158873.829150719
 20
222472.865190442
 42
0
 10
158873.920762735
 20
222472.727464198
 42
0
 10
158875.402024445
 20
222473.716747723
 42
0
 10
158875.20683598
 20
222474.02195793
 42
0
 10
158875.225248626
 20
222474.038917596
 42
0
 10
158875.890989503
 20
222474.476686022
 42
0
 10
158875.935429852
 20
222474.505908474
 42
0
 10
158876.125336056
 20
222474.184510253
 42
0
 10
158876.275458112
 20
222474.274535409
 42
0
 10
158876.063436249
 20
222474.581510375
 42
0
 10
158876.875641046
 20
222475.125512322
 42
0
 10
158877.080210894
 20
222474.805796813
 42
0
 10
158877.218433764
 20
222474.895942164
 42
0
 10
158877.254395667
 20
222474.842195288
 42
0
 10
158877.308811114
 20
222474.87860453
 42
0
 10
158877.917238459
 20
222473.968693632
 42
0
 10
158877.863093655
 20
222473.932465476
 42
0
 10
158877.894205019
 20
222473.885967976
 42
0
 10
158861.753655573
 20
222463.209934099
 42
0
 10
158861.729839774
 20
222463.246082757
 42
0
 10
158861.660375654
 20
222463.190019841
 42
0
 10
158861.364804938
 20
222462.986576663
 42
0
 10
158860.716359335
 20
222463.967836951
 42
0
 10
158861.012675577
 20
222464.164598484
 42
0
 10
158861.087706093
 20
222464.220741202
 42
0
 97
0
 75
1
 76
1
 47
0.0
 98
1
 10
0.0
 20
0.0
  0
LWPOLYLINE
  5
68
100
AcDbEntity
  8
090_MAPPING_Lokaal categorie groep
100
AcDbPolyline
 90
51
 70
0
 10
158861.060806205
 20
222464.261571023
 40
0
 41
0
 10
158862.883633683
 20
222465.466094302
 40
0
 41
0
 10
158862.918230896
 20
222465.41618858
 40
0
 41
0
 10
158863.901878917
 20
222466.07454532
 40
0
 41
0
 10
158863.812603039
 20
222466.208759498
 40
0
 41
0
 10
158864.518206678
 20
222466.679491288
 40
0
 41
0
 10
158864.613371977
 20
222466.536423163
 40
0
 41
0
 10
158865.355216723
 20
222467.029879534
 40
0
 41
0
 10
158865.259381958
 20
222467.17395411
 40
0
 41
0
 10
158865.933474447
 20
222467.623663758
 40
0
 41
0
 10
158866.029918086
 20
222467.478673824
 40
0
 41
0
 10
158867.837169655
 20
222468.680811879
 40
0
 41
0
 10
158867.742335347
 20
222468.823382403
 40
0
 41
0
 10
158868.442663759
 20
222469.288405542
 40
0
 41
0
 10
158868.537121032
 20
222469.146401839
 40
0
 41
0
 10
158869.283762801
 20
222469.643049069
 40
0
 41
0
 10
158869.189707714
 20
222469.78444814
 40
0
 41
0
 10
158869.875670808
 20
222470.239932604
 40
0
 41
0
 10
158869.969356594
 20
222470.099088728
 40
0
 41
0
 10
158871.810711638
 20
222471.323911552
 40
0
 41
0
 10
158871.719018301
 20
222471.461760052
 40
0
 41
0
 10
158872.396729134
 20
222471.912499527
 40
0
 41
0
 10
158872.488396353
 20
222471.774690292
 40
0
 41
0
 10
158873.230289529
 20
222472.268178877
 40
0
 41
0
 10
158873.138650902
 20
222472.405945127
 40
0
 41
0
 10
158873.829150719
 20
222472.865190442
 40
0
 41
0
 10
158873.920762735
 20
222472.727464198
 40
0
 41
0
 10
158875.402024445
 20
222473.716747723
 40
0
 41
0
 10
158875.20683598
 20
222474.02195793
 40
0
 41
0
 10
158875.225248626
 20
222474.038917596
 40
0
 41
0
 10
158875.890989503
 20
222474.476686022
 40
0
 41
0
 10
158875.935429852
 20
222474.505908474
 40
0
 41
0
 10
158876.125336056
 20
222474.184510253
 40
0
 41
0
 10
158876.275458112
 20
222474.274535409
 40
0
 41
0
 10
158876.063436249
 20
222474.581510375
 40
0
 41
0
 10
158876.875641046
 20
222475.125512322
 40
0
 41
0
 10
158877.080210894
 20
222474.805796813
 40
0
 41
0
 10
158877.218433764
 20
222474.895942164
 40
0
 41
0
 10
158877.254395667
 20
222474.842195288
 40
0
 41
0
 10
158877.308811114
 20
222474.87860453
 40
0
 41
0
 10
158877.917238459
 20
222473.968693632
 40
0
 41
0
 10
158877.863093655
 20
222473.932465476
 40
0
 41
0
 10
158877.894205019
 20
222473.885967976
 40
0
 41
0
 10
158861.753655573
 20
222463.209934099
 40
0
 41
0
 10
158861.729839774
 20
222463.246082757
 40
0
 41
0
 10
158861.660375654
 20
222463.190019841
 40
0
 41
0
 10
158861.364804938
 20
222462.986576663
 40
0
 41
0
 10
158860.716359335
 20
222463.967836951
 40
0
 41
0
 10
158861.012675577
 20
222464.164598484
 40
0
 41
0
 10
158861.087706093
 20
222464.220741202
 40
0
 41
0
 10
158861.060806205
 20
222464.261571023
 40
0
 41
0
  0
HATCH
  5
69
100
AcDbEntity
  8
090_MAPPING_Lokaal categorie groep
420
12713983
100
AcDbHatch
 10
0.0
 20
0.0
 30
0.0
210
0.0
220
0.0
230
1.0
  2
SOLID
 70
1
 71
0
 91
3
 92
22
 72
1
 73
1
 93
12
 10
158862.963997982
 20
222465.642626678
 42
0
 10
158860.527548475
 20
222469.333952187
 42
0
 10
158860.36775891
 20
222469.22928988
 42
0
 10
158860.254281414
 20
222469.393453085
 42
0
 10
158864.266103981
 20
222472.026610828
 42
0
 10
158864.364895879
 20
222471.866051416
 42
0
 10
158864.341958821
 20
222471.842211324
 42
0
 10
158866.77615842
 20
222468.185846424
 42
0
 10
158865.933474447
 20
222467.623663758
 42
0
 10
158865.259381958
 20
222467.17395411
 42
0
 10
158864.518206678
 20
222466.679491288
 42
0
 10
158863.812603039
 20
222466.208759498
 42
0
 97
0
 92
7
 72
1
 73
1
 93
4
 10
158863.884118252
 20
222467.683159623
 42
0
 10
158863.932235958
 20
222467.610931548
 42
0
 10
158864.000135557
 20
222467.65616566
 42
0
 10
158863.952017852
 20
222467.728393736
 42
0
 97
0
 92
7
 72
1
 73
1
 93
4
 10
158864.546904563
 20
222468.124702002
 42
0
 10
158864.590899484
 20
222468.058662517
 42
0
 10
158864.522395429
 20
222468.013025722
 42
0
 10
158864.478400509
 20
222468.079065206
 42
0
 97
0
 75
1
 76
1
 47
0.0
 98
1
 10
0.0
 20
0.0
  0
LWPOLYLINE
  5
6A
100
AcDbEntity
  8
090_MAPPING_Lokaal categorie groep
100
AcDbPolyline
 90
13
 70
0
 10
158862.963997982
 20
222465.642626678
 40
0
 41
0
 10
158860.527548475
 20
222469.333952187
 40
0
 41
0
 10
158860.36775891
 20
222469.22928988
 40
0
 41
0
 10
158860.254281414
 20
222469.393453085
 40
0
 41
0
 10
158864.266103981
 20
222472.026610828
 40
0
 41
0
 10
158864.364895879
 20
222471.866051416
 40
0
 41
0
 10
158864.341958821
 20
222471.842211324
 40
0
 41
0
 10
158866.77615842
 20
222468.185846424
 40
0
 41
0
 10
158865.933474447
 20
222467.623663758
 40
0
 41
0
 10
158865.259381958
 20
222467.17395411
 40
0
 41
0
 10
158864.518206678
 20
222466.679491288
 40
0
 41
0
 10
158863.812603039
 20
222466.208759498
 40
0
 41
0
 10
158862.963997982
 20
222465.642626678
 40
0
 41
0
  0
LWPOLYLINE
  5
6B
100
AcDbEntity
  8
090_MAPPING_Lokaal categorie groep
100
AcDbPolyline
 90
5
 70
0
 10
158863.884118252
 20
222467.683159623
 40
0
 41
0
 10
158863.932235958
 20
222467.610931548
 40
0
 41
0
 10
158864.000135557
 20
222467.65616566
 40
0
 41
0
 10
158863.952017852
 20
222467.728393736
 40
0
 41
0
 10
158863.884118252
 20
222467.683159623
 40
0
 41
0
  0
LWPOLYLINE
  5
6C
100
AcDbEntity
  8
090_MAPPING_Lokaal categorie groep
100
AcDbPolyline
 90
5
 70
0
 10
158864.546904563
 20
222468.124702002
 40
0
 41
0
 10
158864.590899484
 20
222468.058662517
 40
0
 41
0
 10
158864.522395429
 20
222468.013025722
 40
0
 41
0
 10
158864.478400509
 20
222468.079065206
 40
0
 41
0
 10
158864.546904563
 20
222468.124702002
 40
0
 41
0
  0
HATCH
  5
6D
100
AcDbEntity
  8
090_MAPPING_Lokaal categorie groep
420
12713983
100
AcDbHatch
 10
0.0
 20
0.0
 30
0.0
210
0.0
220
0.0
230
1.0
  2
SOLID
 70
1
 71
0
 91
3
 92
22
 72
1
 73
1
 93
8
 10
158864.354277755
 20
222472.070938322
 42
0
 10
158868.19787161
 20
222474.575606643
 42
0
 10
158870.719034026
 20
222470.79993189
 42
0
 10
158869.875670808
 20
222470.239932604
 42
0
 10
158869.189707714
 20
222469.78444814
 42
0
 10
158868.442663759
 20
222469.288405542
 42
0
 10
158867.742335347
 20
222468.823382403
 42
0
 10
158866.905259708
 20
222468.267558115
 42
0
 97
0
 92
7
 72
1
 73
1
 93
4
 10
158867.831989463
 20
222470.313196507
 42
0
 10
158867.887650185
 20
222470.229645829
 42
0
 10
158867.960959015
 20
222470.278483523
 42
0
 10
158867.905298292
 20
222470.362034201
 42
0
 97
0
 92
7
 72
1
 73
1
 93
4
 10
158868.42026575
 20
222470.705100966
 42
0
 10
158868.470590499
 20
222470.629559962
 42
0
 10
158868.540892486
 20
222470.676394524
 42
0
 10
158868.490567737
 20
222470.751935529
 42
0
 97
0
 75
1
 76
1
 47
0.0
 98
1
 10
0.0
 20
0.0
  0
LWPOLYLINE
  5
6E
100
AcDbEntity
  8
090_MAPPING_Lokaal categorie groep
100
AcDbPolyline
 90
9
 70
0
 10
158864.354277755
 20
222472.070938322
 40
0
 41
0
 10
158868.19787161
 20
222474.575606643
 40
0
 41
0
 10
158870.719034026
 20
222470.79993189
 40
0
 41
0
 10
158869.875670808
 20
222470.239932604
 40
0
 41
0
 10
158869.189707714
 20
222469.78444814
 40
0
 41
0
 10
158868.442663759
 20
222469.288405542
 40
0
 41
0
 10
158867.742335347
 20
222468.823382403
 40
0
 41
0
 10
158866.905259708
 20
222468.267558115
 40
0
 41
0
 10
158864.354277755
 20
222472.070938322
 40
0
 41
0
  0
LWPOLYLINE
  5
6F
100
AcDbEntity
  8
090_MAPPING_Lokaal categorie groep
100
AcDbPolyline
 90
5
 70
0
 10
158867.831989463
 20
222470.313196507
 40
0
 41
0
 10
158867.887650185
 20
222470.229645829
 40
0
 41
0
 10
158867.960959015
 20
222470.278483523
 40
0
 41
0
 10
158867.905298292
 20
222470.362034201
 40
0
 41
0
 10
158867.831989463
 20
222470.313196507
 40
0
 41
0
  0
LWPOLYLINE
  5
70
100
AcDbEntity
  8
090_MAPPING_Lokaal categorie groep
100
AcDbPolyline
 90
5
 70
0
 10
158868.42026575
 20
222470.705100966
 40
0
 41
0
 10
158868.470590499
 20
222470.629559962
 40
0
 41
0
 10
158868.540892486
 20
222470.676394524
 40
0
 41
0
 10
158868.490567737
 20
222470.751935529
 40
0
 41
0
 10
158868.42026575
 20
222470.705100966
 40
0
 41
0
  0
HATCH
  5
71
100
AcDbEntity
  8
090_MAPPING_Lokaal categorie groep
420
12713983
100
AcDbHatch
 10
0.0
 20
0.0
 30
0.0
210
0.0
220
0.0
230
1.0
  2
SOLID
 70
1
 71
0
 91
3
 92
22
 72
1
 73
1
 93
8
 10
158868.343638437
 20
222474.665986049
 42
0
 10
158872.16555929
 20
222477.194106044
 42
0
 10
158874.676709865
 20
222473.428894526
 42
0
 10
158873.829150719
 20
222472.865190442
 42
0
 10
158873.138650902
 20
222472.405945127
 42
0
 10
158872.396729134
 20
222471.912499527
 42
0
 10
158871.719018301
 20
222471.461760052
 42
0
 10
158870.854326811
 20
222470.886661398
 42
0
 97
0
 92
7
 72
1
 73
1
 93
4
 10
158871.766642397
 20
222472.934427492
 42
0
 10
158871.823838454
 20
222472.848572168
 42
0
 10
158871.903155825
 20
222472.901412699
 42
0
 10
158871.845959768
 20
222472.987268023
 42
0
 97
0
 92
7
 72
1
 73
1
 93
4
 10
158872.353115608
 20
222473.325130758
 42
0
 10
158872.416189118
 20
222473.230452962
 42
0
 10
158872.493101529
 20
222473.28169133
 42
0
 10
158872.430028019
 20
222473.376369126
 42
0
 97
0
 75
1
 76
1
 47
0.0
 98
1
 10
0.0
 20
0.0
  0
LWPOLYLINE
  5
72
100
AcDbEntity
  8
090_MAPPING_Lokaal categorie groep
100
AcDbPolyline
 90
9
 70
0
 10
158868.343638437
 20
222474.665986049
 40
0
 41
0
 10
158872.16555929
 20
222477.194106044
 40
0
 41
0
 10
158874.676709865
 20
222473.428894526
 40
0
 41
0
 10
158873.829150719
 20
222472.865190442
 40
0
 41
0
 10
158873.138650902
 20
222472.405945127
 40
0
 41
0
 10
158872.396729134
 20
222471.912499527
 40
0
 41
0
 10
158871.719018301
 20
222471.461760052
 40
0
 41
0
 10
158870.854326811
 20
222470.886661398
 40
0
 41
0
 10
158868.343638437
 20
222474.665986049
 40
0
 41
0
  0
LWPOLYLINE
  5
73
100
AcDbEntity
  8
090_MAPPING_Lokaal categorie groep
100
AcDbPolyline
 90
5
 70
0
 10
158871.766642397
 20
222472.934427492
 40
0
 41
0
 10
158871.823838454
 20
222472.848572168
 40
0
 41
0
 10
158871.903155825
 20
222472.901412699
 40
0
 41
0
 10
158871.845959768
 20
222472.987268023
 40
0
 41
0
 10
158871.766642397
 20
222472.934427492
 40
0
 41
0
  0
LWPOLYLINE
  5
74
100
AcDbEntity
  8
090_MAPPING_Lokaal categorie groep
100
AcDbPolyline
 90
5
 70
0
 10
158872.353115608
 20
222473.325130758
 40
0
 41
0
 10
158872.416189118
 20
222473.230452962
 40
0
 41
0
 10
158872.493101529
 20
222473.28169133
 40
0
 41
0
 10
158872.430028019
 20
222473.376369126
 40
0
 41
0
 10
158872.353115608
 20
222473.325130758
 40
0
 41
0
  0
HATCH
  5
75
100
AcDbEntity
  8
090_MAPPING_Lokaal categorie groep
420
16761312
100
AcDbHatch
 10
0.0
 20
0.0
 30
0.0
210
0.0
220
0.0
230
1.0
  2
SOLID
 70
1
 71
0
 91
1
 92
22
 72
1
 73
1
 93
16
 10
158874.817497658
 20
222473.514815338
 42
0
 10
158872.272157699
 20
222477.332717949
 42
0
 10
158872.63285019
 20
222477.577274786
 42
0
 10
158872.856275529
 20
222477.241226429
 42
0
 10
158872.995231582
 20
222477.340518527
 42
0
 10
158872.891016589
 20
222477.480644906
 42
0
 10
158877.010783126
 20
222480.198510452
 42
0
 10
158879.309819115
 20
222476.740177583
 42
0
 10
158877.013913202
 20
222475.232327129
 42
0
 10
158876.928215023
 20
222475.357689262
 42
0
 10
158875.799605729
 20
222474.615682915
 42
0
 10
158875.890989503
 20
222474.476686022
 42
0
 10
158875.225248626
 20
222474.038917596
 42
0
 10
158875.133830053
 20
222474.177967419
 42
0
 10
158874.953882854
 20
222474.059660787
 42
0
 10
158875.160198989
 20
222473.738316206
 42
0
 97
0
 75
1
 76
1
 47
0.0
 98
1
 10
0.0
 20
0.0
  0
LWPOLYLINE
  5
76
100
AcDbEntity
  8
090_MAPPING_Lokaal categorie groep
100
AcDbPolyline
 90
17
 70
0
 10
158874.817497658
 20
222473.514815338
 40
0
 41
0
 10
158872.272157699
 20
222477.332717949
 40
0
 41
0
 10
158872.63285019
 20
222477.577274786
 40
0
 41
0
 10
158872.856275529
 20
222477.241226429
 40
0
 41
0
 10
158872.995231582
 20
222477.340518527
 40
0
 41
0
 10
158872.891016589
 20
222477.480644906
 40
0
 41
0
 10
158877.010783126
 20
222480.198510452
 40
0
 41
0
 10
158879.309819115
 20
222476.740177583
 40
0
 41
0
 10
158877.013913202
 20
222475.232327129
 40
0
 41
0
 10
158876.928215023
 20
222475.357689262
 40
0
 41
0
 10
158875.799605729
 20
222474.615682915
 40
0
 41
0
 10
158875.890989503
 20
222474.476686022
 40
0
 41
0
 10
158875.225248626
 20
222474.038917596
 40
0
 41
0
 10
158875.133830053
 20
222474.177967419
 40
0
 41
0
 10
158874.953882854
 20
222474.059660787
 40
0
 41
0
 10
158875.160198989
 20
222473.738316206
 40
0
 41
0
 10
158874.817497658
 20
222473.514815338
 40
0
 41
0
  0
LWPOLYLINE
  5
79
100
AcDbEntity
  8
201_Pilaren
100
AcDbPolyline
 90
5
 70
1
 10
158863.884118252
 20
222467.683159623
 40
0
 41
0
 10
158863.932235958
 20
222467.610931548
 40
0
 41
0
 10
158864.000135557
 20
222467.65616566
 40
0
 41
0
 10
158863.952017852
 20
222467.728393736
 40
0
 41
0
 10
158863.884118252
 20
222467.683159623
 40
0
 41
0
  0
LWPOLYLINE
  5
7A
100
AcDbEntity
  8
201_Pilaren
100
AcDbPolyline
 90
5
 70
1
 10
158864.546904563
 20
222468.124702002
 40
0
 41
0
 10
158864.590899484
 20
222468.058662517
 40
0
 41
0
 10
158864.522395429
 20
222468.013025722
 40
0
 41
0
 10
158864.478400509
 20
222468.079065206
 40
0
 41
0
 10
158864.546904563
 20
222468.124702002
 40
0
 41
0
  0
LWPOLYLINE
  5
7B
100
AcDbEntity
  8
201_Pilaren
100
AcDbPolyline
 90
5
 70
1
 10
158867.831989463
 20
222470.313196507
 40
0
 41
0
 10
158867.887650185
 20
222470.229645829
 40
0
 41
0
 10
158867.960959015
 20
222470.278483523
 40
0
 41
0
 10
158867.905298292
 20
222470.362034201
 40
0
 41
0
 10
158867.831989463
 20
222470.313196507
 40
0
 41
0
  0
LWPOLYLINE
  5
7C
100
AcDbEntity
  8
201_Pilaren
100
AcDbPolyline
 90
5
 70
1
 10
158868.42026575
 20
222470.705100966
 40
0
 41
0
 10
158868.470590499
 20
222470.629559962
 40
0
 41
0
 10
158868.540892486
 20
222470.676394524
 40
0
 41
0
 10
158868.490567737
 20
222470.751935529
 40
0
 41
0
 10
158868.42026575
 20
222470.705100966
 40
0
 41
0
  0
LWPOLYLINE
  5
7D
100
AcDbEntity
  8
201_Pilaren
100
AcDbPolyline
 90
5
 70
1
 10
158871.766642397
 20
222472.934427492
 40
0
 41
0
 10
158871.823838454
 20
222472.848572168
 40
0
 41
0
 10
158871.903155825
 20
222472.901412699
 40
0
 41
0
 10
158871.845959768
 20
222472.987268023
 40
0
 41
0
 10
158871.766642397
 20
222472.934427492
 40
0
 41
0
  0
LWPOLYLINE
  5
7E
100
AcDbEntity
  8
201_Pilaren
100
AcDbPolyline
 90
5
 70
1
 10
158872.353115608
 20
222473.325130758
 40
0
 41
0
 10
158872.416189118
 20
222473.230452962
 40
0
 41
0
 10
158872.493101529
 20
222473.28169133
 40
0
 41
0
 10
158872.430028019
 20
222473.376369126
 40
0
 41
0
 10
158872.353115608
 20
222473.325130758
 40
0
 41
0
  0
LWPOLYLINE
  5
80
100
AcDbEntity
  8
10_TOTALE_VERDIEPINGSOPPER
100
AcDbPolyline
 90
47
 70
1
 10
158859.846196561
 20
222469.663792478
 40
0
 41
0
 10
158859.984144006
 20
222469.757310659
 40
0
 41
0
 10
158860.112878975
 20
222469.546321225
 40
0
 41
0
 10
158864.144308737
 20
222472.169530594
 40
0
 41
0
 10
158863.996427226
 20
222472.396287806
 40
0
 41
0
 10
158864.126139002
 20
222472.491539813
 40
0
 41
0
 10
158864.276494156
 20
222472.255542269
 40
0
 41
0
 10
158868.086615979
 20
222474.768935413
 40
0
 41
0
 10
158867.928222404
 20
222475.00521457
 40
0
 41
0
 10
158868.065898938
 20
222475.090705142
 40
0
 41
0
 10
158868.215376319
 20
222474.861506492
 40
0
 41
0
 10
158872.073203187
 20
222477.35933042
 40
0
 41
0
 10
158871.891477095
 20
222477.61625651
 40
0
 41
0
 10
158872.027025625
 20
222477.704686851
 40
0
 41
0
 10
158872.203436413
 20
222477.442672635
 40
0
 41
0
 10
158872.579772664
 20
222477.690181604
 40
0
 41
0
 10
158872.395598456
 20
222477.951366754
 40
0
 41
0
 10
158872.524505517
 20
222478.038909065
 40
0
 41
0
 10
158872.708895698
 20
222477.762058565
 40
0
 41
0
 10
158877.056652334
 20
222480.571458122
 40
0
 41
0
 10
158876.845263552
 20
222480.867402416
 40
0
 41
0
 10
158876.978332076
 20
222480.966334761
 40
0
 41
0
 10
158879.846675943
 20
222476.640923881
 40
0
 41
0
 10
158877.269130922
 20
222474.937946766
 40
0
 41
0
 10
158877.308811114
 20
222474.87860453
 40
0
 41
0
 10
158877.917238459
 20
222473.968693632
 40
0
 41
0
 10
158878.056312581
 20
222473.760706497
 40
0
 41
0
 10
158871.696966071
 20
222469.570259946
 40
0
 41
0
 10
158871.850363251
 20
222469.353003618
 40
0
 41
0
 10
158871.727944375
 20
222469.277072923
 40
0
 41
0
 10
158871.582176535
 20
222469.49462019
 40
0
 41
0
 10
158867.753110682
 20
222466.97148424
 40
0
 41
0
 10
158867.902451131
 20
222466.747413247
 40
0
 41
0
 10
158867.767291597
 20
222466.662495231
 40
0
 41
0
 10
158867.619506959
 20
222466.887543197
 40
0
 41
0
 10
158863.624859556
 20
222464.251202263
 40
0
 41
0
 10
158863.782380417
 20
222464.019277345
 40
0
 41
0
 10
158863.639181234
 20
222463.924112181
 40
0
 41
0
 10
158863.437692437
 20
222464.228178954
 40
0
 41
0
 10
158861.724861418
 20
222463.092989672
 40
0
 41
0
 10
158861.660375654
 20
222463.190019841
 40
0
 41
0
 10
158861.364804938
 20
222462.986576663
 40
0
 41
0
 10
158860.716359335
 20
222463.967836951
 40
0
 41
0
 10
158861.012675577
 20
222464.164598484
 40
0
 41
0
 10
158860.945197943
 20
222464.266130448
 40
0
 41
0
 10
158862.653559318
 20
222465.412631188
 40
0
 41
0
 10
158859.846196561
 20
222469.663792478
 40
0
 41
0
  0
LWPOLYLINE
  5
82
100
AcDbEntity
  8
50_DEUR
100
AcDbPolyline
 90
4
 70
1
 10
158864.047474888
 20
222467.385094926
 40
0
 41
0
 10
158864.518206678
 20
222466.679491288
 40
0
 41
0
 10
158863.812603039
 20
222466.208759498
 40
0
 41
0
 10
158864.047474888
 20
222467.385094926
 40
0
 41
0
  0
LWPOLYLINE
  5
83
100
AcDbEntity
  8
50_DEUR
100
AcDbPolyline
 90
4
 70
1
 10
158864.80967231
 20
222467.848046599
 40
0
 41
0
 10
158865.259381958
 20
222467.17395411
 40
0
 41
0
 10
158865.933474447
 20
222467.623663758
 40
0
 41
0
 10
158864.80967231
 20
222467.848046599
 40
0
 41
0
  0
LWPOLYLINE
  5
84
100
AcDbEntity
  8
50_DEUR
100
AcDbPolyline
 90
4
 70
1
 10
158867.97764062
 20
222469.988733954
 40
0
 41
0
 10
158868.442663759
 20
222469.288405542
 40
0
 41
0
 10
158867.742335347
 20
222468.823382403
 40
0
 41
0
 10
158867.97764062
 20
222469.988733954
 40
0
 41
0
  0
LWPOLYLINE
  5
85
100
AcDbEntity
  8
50_DEUR
100
AcDbPolyline
 90
4
 70
1
 10
158868.73422325
 20
222470.470411234
 40
0
 41
0
 10
158869.189707714
 20
222469.78444814
 40
0
 41
0
 10
158869.875670808
 20
222470.239932604
 40
0
 41
0
 10
158868.73422325
 20
222470.470411234
 40
0
 41
0
  0
LWPOLYLINE
  5
86
100
AcDbEntity
  8
50_DEUR
100
AcDbPolyline
 90
4
 70
1
 10
158871.945989659
 20
222472.59021036
 40
0
 41
0
 10
158872.396729134
 20
222471.912499527
 40
0
 41
0
 10
158871.719018301
 20
222471.461760052
 40
0
 41
0
 10
158871.945989659
 20
222472.59021036
 40
0
 41
0
  0
LWPOLYLINE
  5
87
100
AcDbEntity
  8
50_DEUR
100
AcDbPolyline
 90
4
 70
1
 10
158872.679405587
 20
222473.096444944
 40
0
 41
0
 10
158873.138650902
 20
222472.405945127
 40
0
 41
0
 10
158873.829150719
 20
222472.865190442
 40
0
 41
0
 10
158872.679405587
 20
222473.096444944
 40
0
 41
0
  0
LWPOLYLINE
  5
88
100
AcDbEntity
  8
50_DEUR
100
AcDbPolyline
 90
4
 70
1
 10
158876.328757929
 20
222473.810945144
 40
0
 41
0
 10
158875.890989503
 20
222474.476686022
 40
0
 41
0
 10
158875.225248626
 20
222474.038917596
 40
0
 41
0
 10
158876.328757929
 20
222473.810945144
 40
0
 41
0
  0
LWPOLYLINE
  5
89
100
AcDbEntity
  8
50_DEUR
100
AcDbPolyline
 90
4
 70
1
 10
158878.218722012
 20
222475.487031875
 40
0
 41
0
 10
158877.308811114
 20
222474.87860453
 40
0
 41
0
 10
158877.917238459
 20
222473.968693632
 40
0
 41
0
 10
158878.218722012
 20
222475.487031875
 40
0
 41
0
  0
LWPOLYLINE
  5
8B
100
AcDbEntity
  8
60_RAAM
100
AcDbPolyline
 90
5
 70
1
 10
158861.052639177
 20
222464.311507401
 40
0
 41
0
 10
158861.068521396
 20
222464.28765602
 40
0
 41
0
 10
158862.626081711
 20
222465.32480833
 40
0
 41
0
 10
158862.610199492
 20
222465.348659711
 40
0
 41
0
 10
158861.052639177
 20
222464.311507401
 40
0
 41
0
  0
LWPOLYLINE
  5
8C
100
AcDbEntity
  8
60_RAAM
100
AcDbPolyline
 90
5
 70
1
 10
158861.769962015
 20
222463.189752364
 40
0
 41
0
 10
158861.788286477
 20
222463.162142362
 40
0
 41
0
 10
158863.410734962
 20
222464.238944031
 40
0
 41
0
 10
158863.392410499
 20
222464.266554033
 40
0
 41
0
 10
158861.769962015
 20
222463.189752364
 40
0
 41
0
  0
LWPOLYLINE
  5
8D
100
AcDbEntity
  8
60_RAAM
100
AcDbPolyline
 90
5
 70
1
 10
158863.580604088
 20
222464.395882536
 40
0
 41
0
 10
158863.597272224
 20
222464.370593657
 40
0
 41
0
 10
158865.696386375
 20
222465.7541394
 40
0
 41
0
 10
158865.679718239
 20
222465.779428279
 40
0
 41
0
 10
158863.580604088
 20
222464.395882536
 40
0
 41
0
  0
LWPOLYLINE
  5
8E
100
AcDbEntity
  8
60_RAAM
100
AcDbPolyline
 90
5
 70
1
 10
158865.763809988
 20
222465.82913791
 40
0
 41
0
 10
158865.775401488
 20
222465.811899815
 40
0
 41
0
 10
158866.135295789
 20
222466.053905378
 40
0
 41
0
 10
158866.123704289
 20
222466.071143472
 40
0
 41
0
 10
158865.763809988
 20
222465.82913791
 40
0
 41
0
  0
LWPOLYLINE
  5
8F
100
AcDbEntity
  8
60_RAAM
100
AcDbPolyline
 90
5
 70
1
 10
158866.215846572
 20
222466.136705181
 40
0
 41
0
 10
158866.228368559
 20
222466.117812686
 40
0
 41
0
 10
158867.513061091
 20
222466.969309701
 40
0
 41
0
 10
158867.500539104
 20
222466.988202197
 40
0
 41
0
 10
158866.215846572
 20
222466.136705181
 40
0
 41
0
  0
LWPOLYLINE
  5
90
100
AcDbEntity
  8
60_RAAM
100
AcDbPolyline
 90
5
 70
1
 10
158867.710771693
 20
222467.133433329
 40
0
 41
0
 10
158867.722459226
 20
222467.115725846
 40
0
 41
0
 10
158869.639323135
 20
222468.380920366
 40
0
 41
0
 10
158869.627635602
 20
222468.398627848
 40
0
 41
0
 10
158867.710771693
 20
222467.133433329
 40
0
 41
0
  0
LWPOLYLINE
  5
91
100
AcDbEntity
  8
60_RAAM
100
AcDbPolyline
 90
5
 70
1
 10
158869.720566834
 20
222468.46020488
 40
0
 41
0
 10
158869.733912729
 20
222468.439741175
 40
0
 41
0
 10
158870.103538411
 20
222468.680801402
 40
0
 41
0
 10
158870.090192517
 20
222468.701265108
 40
0
 41
0
 10
158869.720566834
 20
222468.46020488
 40
0
 41
0
  0
LWPOLYLINE
  5
92
100
AcDbEntity
  8
60_RAAM
100
AcDbPolyline
 90
5
 70
1
 10
158870.14902567
 20
222468.739634556
 40
0
 41
0
 10
158870.161609626
 20
222468.720582869
 40
0
 41
0
 10
158871.472676983
 20
222469.586564629
 40
0
 41
0
 10
158871.460093027
 20
222469.605616316
 40
0
 41
0
 10
158870.14902567
 20
222468.739634556
 40
0
 41
0
  0
LWPOLYLINE
  5
93
100
AcDbEntity
  8
60_RAAM
100
AcDbPolyline
 90
5
 70
1
 10
158871.669304895
 20
222469.743637532
 40
0
 41
0
 10
158871.68445368
 20
222469.720469577
 40
0
 41
0
 10
158872.986496432
 20
222470.571833689
 40
0
 41
0
 10
158872.971347647
 20
222470.595001644
 40
0
 41
0
 10
158871.669304895
 20
222469.743637532
 40
0
 41
0
  0
LWPOLYLINE
  5
94
100
AcDbEntity
  8
60_RAAM
100
AcDbPolyline
 90
5
 70
1
 10
158873.042321822
 20
222470.651133016
 40
0
 41
0
 10
158873.052331244
 20
222470.635785237
 40
0
 41
0
 10
158873.444978595
 20
222470.891859597
 40
0
 41
0
 10
158873.434969174
 20
222470.907207376
 40
0
 41
0
 10
158873.042321822
 20
222470.651133016
 40
0
 41
0
  0
LWPOLYLINE
  5
95
100
AcDbEntity
  8
60_RAAM
100
AcDbPolyline
 90
5
 70
1
 10
158873.488115308
 20
222470.945240396
 40
0
 41
0
 10
158873.500637206
 20
222470.926344655
 40
0
 41
0
 10
158875.408655324
 20
222472.190756988
 40
0
 41
0
 10
158875.396133426
 20
222472.209652729
 40
0
 41
0
 10
158873.488115308
 20
222470.945240396
 40
0
 41
0
  0
LWPOLYLINE
  5
96
100
AcDbEntity
  8
60_RAAM
100
AcDbPolyline
 90
5
 70
1
 10
158875.623957437
 20
222472.35042914
 40
0
 41
0
 10
158875.635059553
 20
222472.333405895
 40
0
 41
0
 10
158875.91052661
 20
222472.513058324
 40
0
 41
0
 10
158875.899424494
 20
222472.530081569
 40
0
 41
0
 10
158875.623957437
 20
222472.35042914
 40
0
 41
0
  0
LWPOLYLINE
  5
97
100
AcDbEntity
  8
60_RAAM
100
AcDbPolyline
 90
5
 70
1
 10
158876.123156362
 20
222472.688169651
 40
0
 41
0
 10
158876.136507383
 20
222472.667909904
 40
0
 41
0
 10
158877.872125899
 20
222473.811669574
 40
0
 41
0
 10
158877.858774877
 20
222473.831929321
 40
0
 41
0
 10
158876.123156362
 20
222472.688169651
 40
0
 41
0
  0
LWPOLYLINE
  5
98
100
AcDbEntity
  8
60_RAAM
100
AcDbPolyline
 90
5
 70
1
 10
158874.858924875
 20
222473.471699693
 40
0
 41
0
 10
158874.845857893
 20
222473.490633661
 40
0
 41
0
 10
158875.173287293
 20
222473.716603929
 40
0
 41
0
 10
158875.186354275
 20
222473.69766996
 40
0
 41
0
 10
158874.858924875
 20
222473.471699693
 40
0
 41
0
  0
LWPOLYLINE
  5
99
100
AcDbEntity
  8
60_RAAM
100
AcDbPolyline
 90
5
 70
1
 10
158872.306408684
 20
222477.382712313
 40
0
 41
0
 10
158872.291850032
 20
222477.404019874
 40
0
 41
0
 10
158872.556185987
 20
222477.584630643
 40
0
 41
0
 10
158872.570744639
 20
222477.563323082
 40
0
 41
0
 10
158872.306408684
 20
222477.382712313
 40
0
 41
0
  0
LWPOLYLINE
  5
9A
100
AcDbEntity
  8
60_RAAM
100
AcDbPolyline
 90
5
 70
1
 10
158872.815208991
 20
222477.698137195
 40
0
 41
0
 10
158872.795024796
 20
222477.728804423
 40
0
 41
0
 10
158877.033203806
 20
222480.518239239
 40
0
 41
0
 10
158877.053388001
 20
222480.487572011
 40
0
 41
0
 10
158872.815208991
 20
222477.698137195
 40
0
 41
0
  0
LWPOLYLINE
  5
9B
100
AcDbEntity
  8
60_RAAM
100
AcDbPolyline
 90
5
 70
1
 10
158868.344165975
 20
222474.751205533
 40
0
 41
0
 10
158868.31744002
 20
222474.791945349
 40
0
 41
0
 10
158872.100330746
 20
222477.273580773
 40
0
 41
0
 10
158872.127056702
 20
222477.232840957
 40
0
 41
0
 10
158868.344165975
 20
222474.751205533
 40
0
 41
0
  0
LWPOLYLINE
  5
9C
100
AcDbEntity
  8
60_RAAM
100
AcDbPolyline
 90
5
 70
1
 10
158864.391306836
 20
222472.14004798
 40
0
 41
0
 10
158864.362399988
 20
222472.184197126
 40
0
 41
0
 10
158868.116919034
 20
222474.642485021
 40
0
 41
0
 10
158868.145825882
 20
222474.598335875
 40
0
 41
0
 10
158864.391306836
 20
222472.14004798
 40
0
 41
0
  0
LWPOLYLINE
  5
9D
100
AcDbEntity
  8
60_RAAM
100
AcDbPolyline
 90
5
 70
1
 10
158860.335954347
 20
222469.486995233
 40
0
 41
0
 10
158860.32143759
 20
222469.509179911
 40
0
 41
0
 10
158864.173068727
 20
222472.02953167
 40
0
 41
0
 10
158864.187585484
 20
222472.007346991
 40
0
 41
0
 10
158860.335954347
 20
222469.486995233
 40
0
 41
0
  0
INSERT
  5
D8
100
AcDbEntity
  8
012_Noordpijl
100
AcDbBlockReference
  2
8001
 10
158858.346196561
 20
222460.486576663
 30
0
 41
1E-5
 42
1E-5
  0
LWPOLYLINE
  5
DA
100
AcDbEntity
  8
LEVEL_AREA
100
AcDbPolyline
 90
47
 70
1
 10
158859.846196561
 20
222469.663792478
 40
0
 41
0
 10
158859.984144006
 20
222469.757310659
 40
0
 41
0
 10
158860.112878975
 20
222469.546321225
 40
0
 41
0
 10
158864.144308737
 20
222472.169530594
 40
0
 41
0
 10
158863.996427226
 20
222472.396287806
 40
0
 41
0
 10
158864.126139002
 20
222472.491539813
 40
0
 41
0
 10
158864.276494156
 20
222472.255542269
 40
0
 41
0
 10
158868.086615979
 20
222474.768935413
 40
0
 41
0
 10
158867.928222404
 20
222475.00521457
 40
0
 41
0
 10
158868.065898938
 20
222475.090705142
 40
0
 41
0
 10
158868.215376319
 20
222474.861506492
 40
0
 41
0
 10
158872.073203187
 20
222477.35933042
 40
0
 41
0
 10
158871.891477095
 20
222477.61625651
 40
0
 41
0
 10
158872.027025625
 20
222477.704686851
 40
0
 41
0
 10
158872.203436413
 20
222477.442672635
 40
0
 41
0
 10
158872.579772664
 20
222477.690181604
 40
0
 41
0
 10
158872.395598456
 20
222477.951366754
 40
0
 41
0
 10
158872.524505517
 20
222478.038909065
 40
0
 41
0
 10
158872.708895698
 20
222477.762058565
 40
0
 41
0
 10
158877.056652334
 20
222480.571458122
 40
0
 41
0
 10
158876.845263552
 20
222480.867402416
 40
0
 41
0
 10
158876.978332076
 20
222480.966334761
 40
0
 41
0
 10
158879.846675943
 20
222476.640923881
 40
0
 41
0
 10
158877.269130922
 20
222474.937946766
 40
0
 41
0
 10
158877.308811114
 20
222474.87860453
 40
0
 41
0
 10
158877.917238459
 20
222473.968693632
 40
0
 41
0
 10
158878.056312581
 20
222473.760706497
 40
0
 41
0
 10
158871.696966071
 20
222469.570259946
 40
0
 41
0
 10
158871.850363251
 20
222469.353003618
 40
0
 41
0
 10
158871.727944375
 20
222469.277072923
 40
0
 41
0
 10
158871.582176535
 20
222469.49462019
 40
0
 41
0
 10
158867.753110682
 20
222466.97148424
 40
0
 41
0
 10
158867.902451131
 20
222466.747413247
 40
0
 41
0
 10
158867.767291597
 20
222466.662495231
 40
0
 41
0
 10
158867.619506959
 20
222466.887543197
 40
0
 41
0
 10
158863.624859556
 20
222464.251202263
 40
0
 41
0
 10
158863.782380417
 20
222464.019277345
 40
0
 41
0
 10
158863.639181234
 20
222463.924112181
 40
0
 41
0
 10
158863.437692437
 20
222464.228178954
 40
0
 41
0
 10
158861.724861418
 20
222463.092989672
 40
0
 41
0
 10
158861.660375654
 20
222463.190019841
 40
0
 41
0
 10
158861.364804938
 20
222462.986576663
 40
0
 41
0
 10
158860.716359335
 20
222463.967836951
 40
0
 41
0
 10
158861.012675577
 20
222464.164598484
 40
0
 41
0
 10
158860.945197943
 20
222464.266130448
 40
0
 41
0
 10
158862.653559318
 20
222465.412631188
 40
0
 41
0
 10
158859.846196561
 20
222469.663792478
 40
0
 41
0
  0
LWPOLYLINE
  5
E2
100
AcDbEntity
  8
LOCATION
100
AcDbPolyline
 90
13
 70
1
 10
158862.963997982
 20
222465.642626678
 40
0
 41
0
 10
158860.527548475
 20
222469.333952187
 40
0
 41
0
 10
158860.36775891
 20
222469.22928988
 40
0
 41
0
 10
158860.254281414
 20
222469.393453085
 40
0
 41
0
 10
158864.266103981
 20
222472.026610828
 40
0
 41
0
 10
158864.364895879
 20
222471.866051416
 40
0
 41
0
 10
158864.341958821
 20
222471.842211324
 40
0
 41
0
 10
158866.77615842
 20
222468.185846424
 40
0
 41
0
 10
158865.933474447
 20
222467.623663758
 40
0
 41
0
 10
158865.259381958
 20
222467.17395411
 40
0
 41
0
 10
158864.518206678
 20
222466.679491288
 40
0
 41
0
 10
158863.812603039
 20
222466.208759498
 40
0
 41
0
 10
158862.963997982
 20
222465.642626678
 40
0
 41
0
  0
LWPOLYLINE
  5
E3
100
AcDbEntity
  8
LOCATION
100
AcDbPolyline
 90
9
 70
1
 10
158864.354277755
 20
222472.070938322
 40
0
 41
0
 10
158868.19787161
 20
222474.575606643
 40
0
 41
0
 10
158870.719034026
 20
222470.79993189
 40
0
 41
0
 10
158869.875670808
 20
222470.239932604
 40
0
 41
0
 10
158869.189707714
 20
222469.78444814
 40
0
 41
0
 10
158868.442663759
 20
222469.288405542
 40
0
 41
0
 10
158867.742335347
 20
222468.823382403
 40
0
 41
0
 10
158866.905259708
 20
222468.267558115
 40
0
 41
0
 10
158864.354277755
 20
222472.070938322
 40
0
 41
0
  0
LWPOLYLINE
  5
E4
100
AcDbEntity
  8
LOCATION
100
AcDbPolyline
 90
9
 70
1
 10
158868.343638437
 20
222474.665986049
 40
0
 41
0
 10
158872.16555929
 20
222477.194106044
 40
0
 41
0
 10
158874.676709865
 20
222473.428894526
 40
0
 41
0
 10
158873.829150719
 20
222472.865190442
 40
0
 41
0
 10
158873.138650902
 20
222472.405945127
 40
0
 41
0
 10
158872.396729134
 20
222471.912499527
 40
0
 41
0
 10
158871.719018301
 20
222471.461760052
 40
0
 41
0
 10
158870.854326811
 20
222470.886661398
 40
0
 41
0
 10
158868.343638437
 20
222474.665986049
 40
0
 41
0
  0
LWPOLYLINE
  5
E5
100
AcDbEntity
  8
LOCATION
100
AcDbPolyline
 90
17
 70
1
 10
158874.817497658
 20
222473.514815338
 40
0
 41
0
 10
158872.272157699
 20
222477.332717949
 40
0
 41
0
 10
158872.63285019
 20
222477.577274786
 40
0
 41
0
 10
158872.856275529
 20
222477.241226429
 40
0
 41
0
 10
158872.995231582
 20
222477.340518527
 40
0
 41
0
 10
158872.891016589
 20
222477.480644906
 40
0
 41
0
 10
158877.010783126
 20
222480.198510452
 40
0
 41
0
 10
158879.309819115
 20
222476.740177583
 40
0
 41
0
 10
158877.013913202
 20
222475.232327129
 40
0
 41
0
 10
158876.928215023
 20
222475.357689262
 40
0
 41
0
 10
158875.799605729
 20
222474.615682915
 40
0
 41
0
 10
158875.890989503
 20
222474.476686022
 40
0
 41
0
 10
158875.225248626
 20
222474.038917596
 40
0
 41
0
 10
158875.133830053
 20
222474.177967419
 40
0
 41
0
 10
158874.953882854
 20
222474.059660787
 40
0
 41
0
 10
158875.160198989
 20
222473.738316206
 40
0
 41
0
 10
158874.817497658
 20
222473.514815338
 40
0
 41
0
  0
LWPOLYLINE
  5
E6
100
AcDbEntity
  8
LOCATION
100
AcDbPolyline
 90
51
 70
1
 10
158861.060806205
 20
222464.261571023
 40
0
 41
0
 10
158862.883633683
 20
222465.466094302
 40
0
 41
0
 10
158862.918230896
 20
222465.41618858
 40
0
 41
0
 10
158863.901878917
 20
222466.07454532
 40
0
 41
0
 10
158863.812603039
 20
222466.208759498
 40
0
 41
0
 10
158864.518206678
 20
222466.679491288
 40
0
 41
0
 10
158864.613371977
 20
222466.536423163
 40
0
 41
0
 10
158865.355216723
 20
222467.029879534
 40
0
 41
0
 10
158865.259381958
 20
222467.17395411
 40
0
 41
0
 10
158865.933474447
 20
222467.623663758
 40
0
 41
0
 10
158866.029918086
 20
222467.478673824
 40
0
 41
0
 10
158867.837169655
 20
222468.680811879
 40
0
 41
0
 10
158867.742335347
 20
222468.823382403
 40
0
 41
0
 10
158868.442663759
 20
222469.288405542
 40
0
 41
0
 10
158868.537121032
 20
222469.146401839
 40
0
 41
0
 10
158869.283762801
 20
222469.643049069
 40
0
 41
0
 10
158869.189707714
 20
222469.78444814
 40
0
 41
0
 10
158869.875670808
 20
222470.239932604
 40
0
 41
0
 10
158869.969356594
 20
222470.099088728
 40
0
 41
0
 10
158871.810711638
 20
222471.323911552
 40
0
 41
0
 10
158871.719018301
 20
222471.461760052
 40
0
 41
0
 10
158872.396729134
 20
222471.912499527
 40
0
 41
0
 10
158872.488396353
 20
222471.774690292
 40
0
 41
0
 10
158873.230289529
 20
222472.268178877
 40
0
 41
0
 10
158873.138650902
 20
222472.405945127
 40
0
 41
0
 10
158873.829150719
 20
222472.865190442
 40
0
 41
0
 10
158873.920762735
 20
222472.727464198
 40
0
 41
0
 10
158875.402024445
 20
222473.716747723
 40
0
 41
0
 10
158875.20683598
 20
222474.02195793
 40
0
 41
0
 10
158875.225248626
 20
222474.038917596
 40
0
 41
0
 10
158875.890989503
 20
222474.476686022
 40
0
 41
0
 10
158875.935429852
 20
222474.505908474
 40
0
 41
0
 10
158876.125336056
 20
222474.184510253
 40
0
 41
0
 10
158876.275458112
 20
222474.274535409
 40
0
 41
0
 10
158876.063436249
 20
222474.581510375
 40
0
 41
0
 10
158876.875641046
 20
222475.125512322
 40
0
 41
0
 10
158877.080210894
 20
222474.805796813
 40
0
 41
0
 10
158877.218433764
 20
222474.895942164
 40
0
 41
0
 10
158877.254395667
 20
222474.842195288
 40
0
 41
0
 10
158877.308811114
 20
222474.87860453
 40
0
 41
0
 10
158877.917238459
 20
222473.968693632
 40
0
 41
0
 10
158877.863093655
 20
222473.932465476
 40
0
 41
0
 10
158877.894205019
 20
222473.885967976
 40
0
 41
0
 10
158861.753655573
 20
222463.209934099
 40
0
 41
0
 10
158861.729839774
 20
222463.246082757
 40
0
 41
0
 10
158861.660375654
 20
222463.190019841
 40
0
 41
0
 10
158861.364804938
 20
222462.986576663
 40
0
 41
0
 10
158860.716359335
 20
222463.967836951
 40
0
 41
0
 10
158861.012675577
 20
222464.164598484
 40
0
 41
0
 10
158861.087706093
 20
222464.220741202
 40
0
 41
0
 10
158861.060806205
 20
222464.261571023
 40
0
 41
0
  0
INSERT
  5
EE
100
AcDbEntity
  8
LCANCHOR
100
AcDbBlockReference
  2
$LCANCHOR
 10
158863.515219917
 20
222468.834618753
 30
0
 41
0.01
 42
0.01
  0
INSERT
  5
EF
100
AcDbEntity
  8
LCANCHOR
100
AcDbBlockReference
  2
$LCANCHOR
 10
158867.536655891
 20
222471.421582379
 30
0
 41
0.01
 42
0.01
  0
INSERT
  5
F0
100
AcDbEntity
  8
LCANCHOR
100
AcDbBlockReference
  2
$LCANCHOR
 10
158871.510174151
 20
222474.040383721
 30
0
 41
0.01
 42
0.01
  0
INSERT
  5
F1
100
AcDbEntity
  8
LCANCHOR
100
AcDbBlockReference
  2
$LCANCHOR
 10
158875.790988407
 20
222476.856662895
 30
0
 41
0.01
 42
0.01
  0
INSERT
  5
F2
100
AcDbEntity
  8
LCANCHOR
100
AcDbBlockReference
  2
$LCANCHOR
 10
158869.316798897
 20
222469.056044493
 30
0
 41
0.01
 42
0.01
  0
LWPOLYLINE
  5
F4
100
AcDbEntity
  8
LOCCARD
100
AcDbPolyline
 90
5
 70
1
 10
158863.515219917
 20
222468.834618753
 40
0
 41
0
 10
158863.515219917
 20
222470.964618753
 40
0
 41
0
 10
158867.711219917
 20
222470.964618753
 40
0
 41
0
 10
158867.711219917
 20
222468.834618753
 40
0
 41
0
 10
158863.515219917
 20
222468.834618753
 40
0
 41
0
  0
TEXT
  5
F5
100
AcDbEntity
  8
LOCCARD
 62
7
100
AcDbText
 10
158863.728219917
 20
222470.401618753
 30
0
 40
0.35
  1
0.01
 50
0
 41
1
 72
0
 11
158863.728219917
 21
222470.401618753
 31
0
100
AcDbText
 73
0
  0
TEXT
  5
F6
100
AcDbEntity
  8
LOCCARD
 62
7
100
AcDbText
 10
158863.728219917
 20
222469.951618753
 30
0
 40
0.3
  1
INTERNAATKAMER
 50
0
 41
1
 72
0
 11
158863.728219917
 21
222469.951618753
 31
0
100
AcDbText
 73
0
  0
TEXT
  5
F7
100
AcDbEntity
  8
LOCCARD
 62
7
100
AcDbText
 10
158863.728219917
 20
222469.501618753
 30
0
 40
0.3
  1

 50
0
 41
1
 72
0
 11
158863.728219917
 21
222469.501618753
 31
0
100
AcDbText
 73
0
  0
TEXT
  5
F8
100
AcDbEntity
  8
LOCCARD
 62
7
100
AcDbText
 10
158863.728219917
 20
222469.051618753
 30
0
 40
0.3
  1
Opp: 21.09 m²
 50
0
 41
1
 72
0
 11
158863.728219917
 21
222469.051618753
 31
0
100
AcDbText
 73
0
  0
LINE
  5
F9
100
AcDbEntity
  8
LOCCARD
100
AcDbLine
 10
158863.515219917
 20
222468.834618753
 30
0
 11
158863.515219917
 21
222468.834618753
 31
0
  0
LWPOLYLINE
  5
FA
100
AcDbEntity
  8
LOCCARD
100
AcDbPolyline
 90
5
 70
1
 10
158867.536655891
 20
222471.421582379
 40
0
 41
0
 10
158867.536655891
 20
222473.551582379
 40
0
 41
0
 10
158871.732655891
 20
222473.551582379
 40
0
 41
0
 10
158871.732655891
 20
222471.421582379
 40
0
 41
0
 10
158867.536655891
 20
222471.421582379
 40
0
 41
0
  0
TEXT
  5
FB
100
AcDbEntity
  8
LOCCARD
 62
7
100
AcDbText
 10
158867.749655891
 20
222472.988582379
 30
0
 40
0.35
  1
0.02
 50
0
 41
1
 72
0
 11
158867.749655891
 21
222472.988582379
 31
0
100
AcDbText
 73
0
  0
TEXT
  5
FC
100
AcDbEntity
  8
LOCCARD
 62
7
100
AcDbText
 10
158867.749655891
 20
222472.538582379
 30
0
 40
0.3
  1
INTERNAATKAMER
 50
0
 41
1
 72
0
 11
158867.749655891
 21
222472.538582379
 31
0
100
AcDbText
 73
0
  0
TEXT
  5
FD
100
AcDbEntity
  8
LOCCARD
 62
7
100
AcDbText
 10
158867.749655891
 20
222472.088582379
 30
0
 40
0.3
  1

 50
0
 41
1
 72
0
 11
158867.749655891
 21
222472.088582379
 31
0
100
AcDbText
 73
0
  0
TEXT
  5
FE
100
AcDbEntity
  8
LOCCARD
 62
7
100
AcDbText
 10
158867.749655891
 20
222471.638582379
 30
0
 40
0.3
  1
Opp: 20.88 m²
 50
0
 41
1
 72
0
 11
158867.749655891
 21
222471.638582379
 31
0
100
AcDbText
 73
0
  0
LINE
  5
FF
100
AcDbEntity
  8
LOCCARD
100
AcDbLine
 10
158867.536655891
 20
222471.421582379
 30
0
 11
158867.536655891
 21
222471.421582379
 31
0
  0
LWPOLYLINE
  5
100
100
AcDbEntity
  8
LOCCARD
100
AcDbPolyline
 90
5
 70
1
 10
158871.510174151
 20
222474.040383721
 40
0
 41
0
 10
158871.510174151
 20
222476.170383721
 40
0
 41
0
 10
158875.706174151
 20
222476.170383721
 40
0
 41
0
 10
158875.706174151
 20
222474.040383721
 40
0
 41
0
 10
158871.510174151
 20
222474.040383721
 40
0
 41
0
  0
TEXT
  5
101
100
AcDbEntity
  8
LOCCARD
 62
7
100
AcDbText
 10
158871.723174151
 20
222475.607383721
 30
0
 40
0.35
  1
0.04
 50
0
 41
1
 72
0
 11
158871.723174151
 21
222475.607383721
 31
0
100
AcDbText
 73
0
  0
TEXT
  5
102
100
AcDbEntity
  8
LOCCARD
 62
7
100
AcDbText
 10
158871.723174151
 20
222475.157383721
 30
0
 40
0.3
  1
INTERNAATKAMER
 50
0
 41
1
 72
0
 11
158871.723174151
 21
222475.157383721
 31
0
100
AcDbText
 73
0
  0
TEXT
  5
103
100
AcDbEntity
  8
LOCCARD
 62
7
100
AcDbText
 10
158871.723174151
 20
222474.707383721
 30
0
 40
0.3
  1

 50
0
 41
1
 72
0
 11
158871.723174151
 21
222474.707383721
 31
0
100
AcDbText
 73
0
  0
TEXT
  5
104
100
AcDbEntity
  8
LOCCARD
 62
7
100
AcDbText
 10
158871.723174151
 20
222474.257383721
 30
0
 40
0.3
  1
Opp: 20.76 m²
 50
0
 41
1
 72
0
 11
158871.723174151
 21
222474.257383721
 31
0
100
AcDbText
 73
0
  0
LINE
  5
105
100
AcDbEntity
  8
LOCCARD
100
AcDbLine
 10
158871.510174151
 20
222474.040383721
 30
0
 11
158871.510174151
 21
222474.040383721
 31
0
  0
LWPOLYLINE
  5
106
100
AcDbEntity
  8
LOCCARD
100
AcDbPolyline
 90
5
 70
1
 10
158875.790988407
 20
222476.856662895
 40
0
 41
0
 10
158875.790988407
 20
222478.986662895
 40
0
 41
0
 10
158878.856988407
 20
222478.986662895
 40
0
 41
0
 10
158878.856988407
 20
222476.856662895
 40
0
 41
0
 10
158875.790988407
 20
222476.856662895
 40
0
 41
0
  0
TEXT
  5
107
100
AcDbEntity
  8
LOCCARD
 62
7
100
AcDbText
 10
158876.003988407
 20
222478.423662895
 30
0
 40
0.35
  1
0.05
 50
0
 41
1
 72
0
 11
158876.003988407
 21
222478.423662895
 31
0
100
AcDbText
 73
0
  0
TEXT
  5
108
100
AcDbEntity
  8
LOCCARD
 62
7
100
AcDbText
 10
158876.003988407
 20
222477.973662895
 30
0
 40
0.3
  1
TOILETTEN
 50
0
 41
1
 72
0
 11
158876.003988407
 21
222477.973662895
 31
0
100
AcDbText
 73
0
  0
TEXT
  5
109
100
AcDbEntity
  8
LOCCARD
 62
7
100
AcDbText
 10
158876.003988407
 20
222477.523662895
 30
0
 40
0.3
  1

 50
0
 41
1
 72
0
 11
158876.003988407
 21
222477.523662895
 31
0
100
AcDbText
 73
0
  0
TEXT
  5
10A
100
AcDbEntity
  8
LOCCARD
 62
7
100
AcDbText
 10
158876.003988407
 20
222477.073662895
 30
0
 40
0.3
  1
Opp: 22.87 m²
 50
0
 41
1
 72
0
 11
158876.003988407
 21
222477.073662895
 31
0
100
AcDbText
 73
0
  0
LINE
  5
10B
100
AcDbEntity
  8
LOCCARD
100
AcDbLine
 10
158875.790988407
 20
222476.856662895
 30
0
 11
158875.790988407
 21
222476.856662895
 31
0
  0
LWPOLYLINE
  5
10C
100
AcDbEntity
  8
LOCCARD
100
AcDbPolyline
 90
5
 70
1
 10
158869.316798897
 20
222469.056044493
 40
0
 41
0
 10
158869.316798897
 20
222471.186044493
 40
0
 41
0
 10
158872.382798897
 20
222471.186044493
 40
0
 41
0
 10
158872.382798897
 20
222469.056044493
 40
0
 41
0
 10
158869.316798897
 20
222469.056044493
 40
0
 41
0
  0
TEXT
  5
10D
100
AcDbEntity
  8
LOCCARD
 62
7
100
AcDbText
 10
158869.529798897
 20
222470.623044493
 30
0
 40
0.35
  1
0.03
 50
0
 41
1
 72
0
 11
158869.529798897
 21
222470.623044493
 31
0
100
AcDbText
 73
0
  0
TEXT
  5
10E
100
AcDbEntity
  8
LOCCARD
 62
7
100
AcDbText
 10
158869.529798897
 20
222470.173044493
 30
0
 40
0.3
  1
GANG
 50
0
 41
1
 72
0
 11
158869.529798897
 21
222470.173044493
 31
0
100
AcDbText
 73
0
  0
TEXT
  5
10F
100
AcDbEntity
  8
LOCCARD
 62
7
100
AcDbText
 10
158869.529798897
 20
222469.723044493
 30
0
 40
0.3
  1

 50
0
 41
1
 72
0
 11
158869.529798897
 21
222469.723044493
 31
0
100
AcDbText
 73
0
  0
TEXT
  5
110
100
AcDbEntity
  8
LOCCARD
 62
7
100
AcDbText
 10
158869.529798897
 20
222469.273044493
 30
0
 40
0.3
  1
Opp: 25.69 m²
 50
0
 41
1
 72
0
 11
158869.529798897
 21
222469.273044493
 31
0
100
AcDbText
 73
0
  0
LINE
  5
111
100
AcDbEntity
  8
LOCCARD
100
AcDbLine
 10
158869.316798897
 20
222469.056044493
 30
0
 11
158869.316798897
 21
222469.056044493
 31
0
  0
INSERT
  5
13F
100
AcDbEntity
  8
LEGEND
100
AcDbBlockReference
  2
$LEGENDRCT
 10
158873.783511768
 20
222467.807648462
 30
0
 41
0.01
 42
0.01
  0
INSERT
  5
15C
100
AcDbEntity
  8
TITLE_BLOCK
100
AcDbBlockReference
  2
$TITLE_BLOCK
 10
158873.767569227
 20
222465.514898215
 30
0
 41
0.01
 42
0.01
  0
ENDSEC
  0
SECTION
  2
OBJECTS
  0
DICTIONARY
  5
168
100
AcDbDictionary
  3
ACAD_GROUP
350
1
  3
ACAD_MLINESTYLE
350
2
  0
DICTIONARY
  5
1
100
AcDbDictionary
  0
DICTIONARY
  5
2
100
AcDbDictionary
  0
ENDSEC
  0
EOF
