  0
SECTION
  2
HEADER
  9
$HANDSEED
  5
207
  9
$ACADVER
  1
AC1018
  0
ENDSEC
  0
SECTION
  2
TABLES
  0
TABLE
  2
VPORT
  5
206
100
AcDbSymbolTable
 70
1
  0
VPORT
  5
8D
100
AcDbSymbolTableRecord
100
AcDbViewportTableRecord
  2
*Active
 70
0
 10
0
 20
0
 11
1
 21
1
 12
158828.697499998
 22
222446.539234118
 13
0
 23
0
 14
1
 24
1
 15
0
 25
0
 16
0
 26
0
 36
1
 17
0
 27
0
 37
0
 40
29.5548682390153
 41
0.233125722107078
 42
0
 43
0
 44
0
 50
0
 51
0
 71
0
 72
0
 73
0
 74
0
 75
0
 76
0
 77
0
 78
0
  0
ENDTAB
  0
TABLE
  2
LTYPE
  5
1FE
100
AcDbSymbolTable
 70
3
  0
LTYPE
  5
1F2
100
AcDbSymbolTableRecord
100
AcDbLinetypeTableRecord
  2
ByBlock
 70
0
  3

 72
65
 73
0
 40
0
  0
LTYPE
  5
1F3
100
AcDbSymbolTableRecord
100
AcDbLinetypeTableRecord
  2
ByLayer
 70
0
  3

 72
65
 73
0
 40
0
  0
ENDTAB
  0
TABLE
  2
LAYER
  5
204
100
AcDbSymbolTable
 70
26
  0
LAYER
  5
64
100
AcDbSymbolTableRecord
100
AcDbLayerTableRecord
  2
0
 70
0
  6
Continuous
 62
7
390
0
290
1
  0
LAYER
  5
66
100
AcDbSymbolTableRecord
100
AcDbLayerTableRecord
  2
090_MAPPING_Lokaal categorie groep
 70
0
  6
Continuous
420
16711680
390
0
290
1
  0
LAYER
  5
8E
100
AcDbSymbolTableRecord
100
AcDbLayerTableRecord
  2
095_interne constructieoppervlakte-ICA
 70
0
  6
Continuous
 62
7
390
0
290
1
  0
LAYER
  5
93
100
AcDbSymbolTableRecord
100
AcDbLayerTableRecord
  2
090_bouwlaagoppervlakte-LA
 70
0
  6
Continuous
 62
7
390
0
290
1
  0
LAYER
  5
99
100
AcDbSymbolTableRecord
100
AcDbLayerTableRecord
  2
050_deur
 70
0
  6
Continuous
 62
7
390
0
290
1
  0
LAYER
  5
B7
100
AcDbSymbolTableRecord
100
AcDbLayerTableRecord
  2
060_raam
 70
0
  6
Continuous
 62
7
390
0
290
1
  0
LAYER
  5
CC
100
AcDbSymbolTableRecord
100
AcDbLayerTableRecord
  2
070_trap
 70
0
  6
Continuous
 62
7
390
0
290
1
  0
LAYER
  5
D5
100
AcDbSymbolTableRecord
100
AcDbLayerTableRecord
  2
091_bruto vloeroppervlakte-GFA
 70
0
  6
Continuous
 62
7
390
0
290
1
  0
LAYER
  5
DB
100
AcDbSymbolTableRecord
100
AcDbLayerTableRecord
  2
012_noordpijl
 70
0
  6
Continuous
 62
7
390
0
290
1
  0
LAYER
  5
DF
100
AcDbSymbolTableRecord
100
AcDbLayerTableRecord
  2
013_schaalstok
 70
0
  6
Continuous
 62
7
390
0
290
1
  0
LAYER
  5
E9
100
AcDbSymbolTableRecord
100
AcDbLayerTableRecord
  2
LEVEL_AREA
 70
0
  6
Continuous
 62
7
390
0
290
1
  0
LAYER
  5
EF
100
AcDbSymbolTableRecord
100
AcDbLayerTableRecord
  2
GROSS_FLOOR_AREA
 70
0
  6
Continuous
 62
7
390
0
290
1
  0
LAYER
  5
F5
100
AcDbSymbolTableRecord
100
AcDbLayerTableRecord
  2
INTERNAL_FLOOR_AREA
 70
0
  6
Continuous
 62
7
390
0
290
1
  0
LAYER
  5
F6
100
AcDbSymbolTableRecord
100
AcDbLayerTableRecord
  2
NET_FLOOR_AREA
 70
0
  6
Continuous
 62
7
390
0
290
1
  0
LAYER
  5
F7
100
AcDbSymbolTableRecord
100
AcDbLayerTableRecord
  2
LAND
 70
0
  6
Continuous
420
16711680
390
0
290
1
  0
LAYER
  5
F8
100
AcDbSymbolTableRecord
100
AcDbLayerTableRecord
  2
LAND_CARD_ANCHOR
 70
0
  6
Continuous
 62
7
390
0
290
1
  0
LAYER
  5
F9
100
AcDbSymbolTableRecord
100
AcDbLayerTableRecord
  2
LAND_CARD
 70
0
  6
Continuous
 62
7
390
0
290
1
  0
LAYER
  5
FA
100
AcDbSymbolTableRecord
100
AcDbLayerTableRecord
  2
LOCATION
 70
0
  6
Continuous
420
16711680
390
0
290
1
  0
LAYER
  5
10E
100
AcDbSymbolTableRecord
100
AcDbLayerTableRecord
  2
LCANCHOR
 70
0
  6
Continuous
 62
7
390
0
290
1
  0
LAYER
  5
128
100
AcDbSymbolTableRecord
100
AcDbLayerTableRecord
  2
LOCCARD
 70
0
  6
Continuous
 62
7
390
0
290
1
  0
LAYER
  5
19B
100
AcDbSymbolTableRecord
100
AcDbLayerTableRecord
  2
OUTSIDE
 70
0
  6
Continuous
420
16711680
390
0
290
1
  0
LAYER
  5
19C
100
AcDbSymbolTableRecord
100
AcDbLayerTableRecord
  2
OUTSIDE_CARD_ANCHOR
 70
0
  6
Continuous
 62
7
390
0
290
1
  0
LAYER
  5
19D
100
AcDbSymbolTableRecord
100
AcDbLayerTableRecord
  2
OUTSIDE_CARD
 70
0
  6
Continuous
 62
7
390
0
290
1
  0
LAYER
  5
19E
100
AcDbSymbolTableRecord
100
AcDbLayerTableRecord
  2
MAINTOBJECT
 70
0
  6
Continuous
 62
7
390
0
290
1
  0
LAYER
  5
19F
100
AcDbSymbolTableRecord
100
AcDbLayerTableRecord
  2
LEGEND
 70
0
  6
Continuous
420
16711680
390
0
290
1
  0
LAYER
  5
1D5
100
AcDbSymbolTableRecord
100
AcDbLayerTableRecord
  2
TITLE_BLOCK
 70
0
  6
Continuous
 62
7
390
0
290
1
  0
ENDTAB
  0
TABLE
  2
STYLE
  5
205
100
AcDbSymbolTable
 70
1
  0
STYLE
  5
1FC
100
AcDbSymbolTableRecord
100
AcDbTextStyleTableRecord
  2
Standard
 70
0
 40
0.0
  3
ARIAL.TTF
  0
ENDTAB
  0
TABLE
  2
VIEW
  5
202
100
AcDbSymbolTable
 70
0
  0
ENDTAB
  0
TABLE
  2
UCS
  5
201
100
AcDbSymbolTable
 70
0
  0
ENDTAB
  0
TABLE
  2
APPID
  5
1FF
100
AcDbSymbolTable
 70
1
  0
APPID
  5
1F4
100
AcDbSymbolTableRecord
100
AcDbRegAppTableRecord
  2
ACAD
 70
0
  0
ENDTAB
  0
TABLE
  2
DIMSTYLE
  5
203
100
AcDbSymbolTable
 70
1
100
AcDbDimStyleTable
  0
DIMSTYLE
105
1FB
100
AcDbSymbolTableRecord
100
AcDbDimStyleTableRecord
  2
ISO-25
 70
0
  0
ENDTAB
  0
TABLE
  2
BLOCK_RECORD
  5
200
100
AcDbSymbolTable
 70
5
  0
BLOCK_RECORD
  5
114
100
AcDbSymbolTableRecord
100
AcDbBlockTableRecord
  2
$LCANCHOR
 70
0
  0
BLOCK_RECORD
  5
1D3
100
AcDbSymbolTableRecord
100
AcDbBlockTableRecord
  2
$LEGENDRCT
 70
0
  0
BLOCK_RECORD
  5
1F0
100
AcDbSymbolTableRecord
100
AcDbBlockTableRecord
  2
$TITLE_BLOCK
 70
0
  0
BLOCK_RECORD
  5
1F7
100
AcDbSymbolTableRecord
100
AcDbBlockTableRecord
  2
*Model_Space
 70
0
  0
BLOCK_RECORD
  5
1FA
100
AcDbSymbolTableRecord
100
AcDbBlockTableRecord
  2
*Paper_Space
 70
0
  0
ENDTAB
  0
ENDSEC
  0
SECTION
  2
BLOCKS
  0
BLOCK
  5
10F
100
AcDbEntity
100
AcDbBlockBegin
  2
$LCANCHOR
 70
0
 10
0
 20
0
 30
0
  0
LINE
  5
111
100
AcDbEntity
  8
0
100
AcDbLine
 10
-1
 20
0
 30
0
 11
1
 21
0
 31
0
  0
LINE
  5
112
100
AcDbEntity
  8
0
100
AcDbLine
 10
0
 20
-1
 30
0
 11
0
 21
1
 31
0
  0
LWPOLYLINE
  5
113
100
AcDbEntity
  8
0
100
AcDbPolyline
 90
5
 70
1
 10
0
 20
10
 40
0
 41
0
 10
10
 20
0
 40
0
 41
0
 10
0
 20
-10
 40
0
 41
0
 10
-10
 20
0
 40
0
 41
0
 10
0
 20
10
 40
0
 41
0
  0
ENDBLK
  5
110
100
AcDbEntity
100
AcDbBlockEnd
  0
BLOCK
  5
1A0
100
AcDbEntity
100
AcDbBlockBegin
  2
$LEGENDRCT
 70
0
 10
0
 20
0
 30
0
  0
LINE
  5
1A2
100
AcDbEntity
  8
0
100
AcDbLine
 10
0
 20
50
 30
0
 11
0
 21
-290
 31
0
  0
LINE
  5
1A3
100
AcDbEntity
  8
0
100
AcDbLine
 10
335.977635485059
 20
0
 30
0
 11
335.977635485059
 21
-290
 31
0
  0
LINE
  5
1A4
100
AcDbEntity
  8
0
100
AcDbLine
 10
453.189192568118
 20
0
 30
0
 11
453.189192568118
 21
-290
 31
0
  0
LINE
  5
1A5
100
AcDbEntity
  8
0
100
AcDbLine
 10
639.033244836118
 20
0
 30
0
 11
639.033244836118
 21
-290
 31
0
  0
LINE
  5
1A6
100
AcDbEntity
  8
0
100
AcDbLine
 10
854.904013747531
 20
50
 30
0
 11
854.904013747531
 21
-290
 31
0
  0
LINE
  5
1A7
100
AcDbEntity
  8
0
100
AcDbLine
 10
0
 20
-290
 30
0
 11
854.904013747531
 21
-290
 31
0
  0
LINE
  5
1A8
100
AcDbEntity
  8
0
100
AcDbLine
 10
0
 20
0
 30
0
 11
854.904013747531
 21
0
 31
0
  0
LINE
  5
1A9
100
AcDbEntity
  8
0
100
AcDbLine
 10
0
 20
-40
 30
0
 11
854.904013747531
 21
-40
 31
0
  0
LINE
  5
1AA
100
AcDbEntity
  8
0
100
AcDbLine
 10
0
 20
-250
 30
0
 11
854.904013747531
 21
-250
 31
0
  0
LINE
  5
1AB
100
AcDbEntity
  8
0
100
AcDbLine
 10
0
 20
50
 30
0
 11
854.904013747531
 21
50
 31
0
  0
TEXT
  5
1AC
100
AcDbEntity
  8
0
420
16711680
100
AcDbText
 10
20
 20
-10
 30
0
 40
20
  1
Lokaalcategoriegroepen
 50
0
 41
1
 39
2
 72
0
 11
20
 21
-10
 31
0
100
AcDbText
 73
3
  0
HATCH
  5
1AD
100
AcDbEntity
  8
0
420
11915771
100
AcDbHatch
 10
0.0
 20
0.0
 30
0.0
210
0.0
220
0.0
230
1.0
  2
SOLID
 70
1
 71
0
 91
1
 92
22
 72
1
 73
1
 93
4
 10
20
 20
-50
 42
0
 10
20
 20
-70
 42
0
 10
60
 20
-70
 42
0
 10
60
 20
-50
 42
0
 97
0
 75
0
 76
1
 47
0.0
 98
1
 10
0.0
 20
0.0
  0
LWPOLYLINE
  5
1AE
100
AcDbEntity
  8
0
100
AcDbPolyline
 90
5
 70
1
 10
20
 20
-50
 40
0
 41
0
 10
20
 20
-70
 40
0
 41
0
 10
60
 20
-70
 40
0
 41
0
 10
60
 20
-50
 40
0
 41
0
 10
20
 20
-50
 40
0
 41
0
  0
HATCH
  5
1AF
100
AcDbEntity
  8
0
420
12510413
100
AcDbHatch
 10
0.0
 20
0.0
 30
0.0
210
0.0
220
0.0
230
1.0
  2
SOLID
 70
1
 71
0
 91
1
 92
22
 72
1
 73
1
 93
4
 10
20
 20
-90
 42
0
 10
20
 20
-110
 42
0
 10
60
 20
-110
 42
0
 10
60
 20
-90
 42
0
 97
0
 75
0
 76
1
 47
0.0
 98
1
 10
0.0
 20
0.0
  0
LWPOLYLINE
  5
1B0
100
AcDbEntity
  8
0
100
AcDbPolyline
 90
5
 70
1
 10
20
 20
-90
 40
0
 41
0
 10
20
 20
-110
 40
0
 41
0
 10
60
 20
-110
 40
0
 41
0
 10
60
 20
-90
 40
0
 41
0
 10
20
 20
-90
 40
0
 41
0
  0
HATCH
  5
1B1
100
AcDbEntity
  8
0
420
12713983
100
AcDbHatch
 10
0.0
 20
0.0
 30
0.0
210
0.0
220
0.0
230
1.0
  2
SOLID
 70
1
 71
0
 91
1
 92
22
 72
1
 73
1
 93
4
 10
20
 20
-130
 42
0
 10
20
 20
-150
 42
0
 10
60
 20
-150
 42
0
 10
60
 20
-130
 42
0
 97
0
 75
0
 76
1
 47
0.0
 98
1
 10
0.0
 20
0.0
  0
LWPOLYLINE
  5
1B2
100
AcDbEntity
  8
0
100
AcDbPolyline
 90
5
 70
1
 10
20
 20
-130
 40
0
 41
0
 10
20
 20
-150
 40
0
 41
0
 10
60
 20
-150
 40
0
 41
0
 10
60
 20
-130
 40
0
 41
0
 10
20
 20
-130
 40
0
 41
0
  0
HATCH
  5
1B3
100
AcDbEntity
  8
0
420
16761312
100
AcDbHatch
 10
0.0
 20
0.0
 30
0.0
210
0.0
220
0.0
230
1.0
  2
SOLID
 70
1
 71
0
 91
1
 92
22
 72
1
 73
1
 93
4
 10
20
 20
-170
 42
0
 10
20
 20
-190
 42
0
 10
60
 20
-190
 42
0
 10
60
 20
-170
 42
0
 97
0
 75
0
 76
1
 47
0.0
 98
1
 10
0.0
 20
0.0
  0
LWPOLYLINE
  5
1B4
100
AcDbEntity
  8
0
100
AcDbPolyline
 90
5
 70
1
 10
20
 20
-170
 40
0
 41
0
 10
20
 20
-190
 40
0
 41
0
 10
60
 20
-190
 40
0
 41
0
 10
60
 20
-170
 40
0
 41
0
 10
20
 20
-170
 40
0
 41
0
  0
HATCH
  5
1B5
100
AcDbEntity
  8
0
420
33023
100
AcDbHatch
 10
0.0
 20
0.0
 30
0.0
210
0.0
220
0.0
230
1.0
  2
SOLID
 70
1
 71
0
 91
1
 92
22
 72
1
 73
1
 93
4
 10
20
 20
-210
 42
0
 10
20
 20
-230
 42
0
 10
60
 20
-230
 42
0
 10
60
 20
-210
 42
0
 97
0
 75
0
 76
1
 47
0.0
 98
1
 10
0.0
 20
0.0
  0
LWPOLYLINE
  5
1B6
100
AcDbEntity
  8
0
100
AcDbPolyline
 90
5
 70
1
 10
20
 20
-210
 40
0
 41
0
 10
20
 20
-230
 40
0
 41
0
 10
60
 20
-230
 40
0
 41
0
 10
60
 20
-210
 40
0
 41
0
 10
20
 20
-210
 40
0
 41
0
  0
TEXT
  5
1B7
100
AcDbEntity
  8
0
420
16711680
100
AcDbText
 10
80
 20
-50
 30
0
 40
20
  1
Buiten
 50
0
 41
1
 72
0
 11
80
 21
-50
 31
0
100
AcDbText
 73
3
  0
TEXT
  5
1B8
100
AcDbEntity
  8
0
420
16711680
100
AcDbText
 10
80
 20
-90
 30
0
 40
20
  1
Circulatie
 50
0
 41
1
 72
0
 11
80
 21
-90
 31
0
100
AcDbText
 73
3
  0
TEXT
  5
1B9
100
AcDbEntity
  8
0
420
16711680
100
AcDbText
 10
80
 20
-130
 30
0
 40
20
  1
Internaat
 50
0
 41
1
 72
0
 11
80
 21
-130
 31
0
100
AcDbText
 73
3
  0
TEXT
  5
1BA
100
AcDbEntity
  8
0
420
16711680
100
AcDbText
 10
80
 20
-170
 30
0
 40
20
  1
Sanitair
 50
0
 41
1
 72
0
 11
80
 21
-170
 31
0
100
AcDbText
 73
3
  0
TEXT
  5
1BB
100
AcDbEntity
  8
0
420
16711680
100
AcDbText
 10
80
 20
-210
 30
0
 40
20
  1
Technische ruimte
 50
0
 41
1
 72
0
 11
80
 21
-210
 31
0
100
AcDbText
 73
3
  0
TEXT
  5
1BC
100
AcDbEntity
  8
0
420
16711680
100
AcDbText
 10
247.345140300118
 20
-260
 30
0
 40
20
  1
Totaal
 50
0
 41
1
 72
0
 11
247.345140300118
 21
-260
 31
0
100
AcDbText
 73
3
  0
TEXT
  5
1BD
100
AcDbEntity
  8
0
420
16711680
100
AcDbText
 10
355.977635485059
 20
-10
 30
0
 40
20
  1
Aantal
 50
0
 41
1
 39
2
 72
0
 11
355.977635485059
 21
-10
 31
0
100
AcDbText
 73
3
  0
TEXT
  5
1BE
100
AcDbEntity
  8
0
420
16711680
100
AcDbText
 10
420.320599720942
 20
-50
 30
0
 40
20
  1
1
 50
0
 41
1
 72
0
 11
420.320599720942
 21
-50
 31
0
100
AcDbText
 73
3
  0
TEXT
  5
1BF
100
AcDbEntity
  8
0
420
16711680
100
AcDbText
 10
420.320599720942
 20
-90
 30
0
 40
20
  1
2
 50
0
 41
1
 72
0
 11
420.320599720942
 21
-90
 31
0
100
AcDbText
 73
3
  0
TEXT
  5
1C0
100
AcDbEntity
  8
0
420
16711680
100
AcDbText
 10
407.452006873765
 20
-130
 30
0
 40
20
  1
13
 50
0
 41
1
 72
0
 11
407.452006873765
 21
-130
 31
0
100
AcDbText
 73
3
  0
TEXT
  5
1C1
100
AcDbEntity
  8
0
420
16711680
100
AcDbText
 10
420.320599720942
 20
-170
 30
0
 40
20
  1
2
 50
0
 41
1
 72
0
 11
420.320599720942
 21
-170
 31
0
100
AcDbText
 73
3
  0
TEXT
  5
1C2
100
AcDbEntity
  8
0
420
16711680
100
AcDbText
 10
420.320599720942
 20
-210
 30
0
 40
20
  1
1
 50
0
 41
1
 72
0
 11
420.320599720942
 21
-210
 31
0
100
AcDbText
 73
3
  0
TEXT
  5
1C3
100
AcDbEntity
  8
0
420
16711680
100
AcDbText
 10
407.452006873765
 20
-260
 30
0
 40
20
  1
19
 50
0
 41
1
 72
0
 11
407.452006873765
 21
-260
 31
0
100
AcDbText
 73
3
  0
TEXT
  5
1C4
100
AcDbEntity
  8
0
420
16711680
100
AcDbText
 10
473.189192568118
 20
-10
 30
0
 40
20
  1
Oppervlakte
 50
0
 41
1
 39
2
 72
0
 11
473.189192568118
 21
-10
 31
0
100
AcDbText
 73
3
  0
TEXT
  5
1C5
100
AcDbEntity
  8
0
420
16711680
100
AcDbText
 10
533.242625854942
 20
-50
 30
0
 40
20
  1
3.25 m²
 50
0
 41
1
 72
0
 11
533.242625854942
 21
-50
 31
0
100
AcDbText
 73
3
  0
TEXT
  5
1C6
100
AcDbEntity
  8
0
420
16711680
100
AcDbText
 10
520.374033007765
 20
-90
 30
0
 40
20
  1
36.73 m²
 50
0
 41
1
 72
0
 11
520.374033007765
 21
-90
 31
0
100
AcDbText
 73
3
  0
TEXT
  5
1C7
100
AcDbEntity
  8
0
420
16711680
100
AcDbText
 10
520.374033007765
 20
-130
 30
0
 40
20
  1
98.79 m²
 50
0
 41
1
 72
0
 11
520.374033007765
 21
-130
 31
0
100
AcDbText
 73
3
  0
TEXT
  5
1C8
100
AcDbEntity
  8
0
420
16711680
100
AcDbText
 10
520.374033007765
 20
-170
 30
0
 40
20
  1
24.44 m²
 50
0
 41
1
 72
0
 11
520.374033007765
 21
-170
 31
0
100
AcDbText
 73
3
  0
TEXT
  5
1C9
100
AcDbEntity
  8
0
420
16711680
100
AcDbText
 10
533.242625854942
 20
-210
 30
0
 40
20
  1
7.66 m²
 50
0
 41
1
 72
0
 11
533.242625854942
 21
-210
 31
0
100
AcDbText
 73
3
  0
TEXT
  5
1CA
100
AcDbEntity
  8
0
420
16711680
100
AcDbText
 10
507.505440160589
 20
-260
 30
0
 40
20
  1
170.87 m²
 50
0
 41
1
 72
0
 11
507.505440160589
 21
-260
 31
0
100
AcDbText
 73
3
  0
TEXT
  5
1CB
100
AcDbEntity
  8
0
420
16711680
100
AcDbText
 10
659.033244836118
 20
-10
 30
0
 40
20
  1
Oppervlakte %
 50
0
 41
1
 39
2
 72
0
 11
659.033244836118
 21
-10
 31
0
100
AcDbText
 73
3
  0
TEXT
  5
1CC
100
AcDbEntity
  8
0
420
16711680
100
AcDbText
 10
766.271518562589
 20
-50
 30
0
 40
20
  1
1.90%
 50
0
 41
1
 72
0
 11
766.271518562589
 21
-50
 31
0
100
AcDbText
 73
3
  0
TEXT
  5
1CD
100
AcDbEntity
  8
0
420
16711680
100
AcDbText
 10
753.402925715413
 20
-90
 30
0
 40
20
  1
21.50%
 50
0
 41
1
 72
0
 11
753.402925715413
 21
-90
 31
0
100
AcDbText
 73
3
  0
TEXT
  5
1CE
100
AcDbEntity
  8
0
420
16711680
100
AcDbText
 10
753.402925715413
 20
-130
 30
0
 40
20
  1
57.82%
 50
0
 41
1
 72
0
 11
753.402925715413
 21
-130
 31
0
100
AcDbText
 73
3
  0
TEXT
  5
1CF
100
AcDbEntity
  8
0
420
16711680
100
AcDbText
 10
753.402925715413
 20
-170
 30
0
 40
20
  1
14.30%
 50
0
 41
1
 72
0
 11
753.402925715413
 21
-170
 31
0
100
AcDbText
 73
3
  0
TEXT
  5
1D0
100
AcDbEntity
  8
0
420
16711680
100
AcDbText
 10
766.271518562589
 20
-210
 30
0
 40
20
  1
4.48%
 50
0
 41
1
 72
0
 11
766.271518562589
 21
-210
 31
0
100
AcDbText
 73
3
  0
TEXT
  5
1D1
100
AcDbEntity
  8
0
420
16711680
100
AcDbText
 10
740.534332868236
 20
-260
 30
0
 40
20
  1
100.00%
 50
0
 41
1
 72
0
 11
740.534332868236
 21
-260
 31
0
100
AcDbText
 73
3
  0
TEXT
  5
1D2
100
AcDbEntity
  8
0
420
16711680
100
AcDbText
 10
185.093508251941
 20
40
 30
0
 40
30
  1
Lokaal categorie groep
 50
0
 41
1
 39
2
 72
0
 11
185.093508251941
 21
40
 31
0
100
AcDbText
 73
3
  0
ENDBLK
  5
1A1
100
AcDbEntity
100
AcDbBlockEnd
  0
BLOCK
  5
1D6
100
AcDbEntity
100
AcDbBlockBegin
  2
$TITLE_BLOCK
 70
0
 10
0
 20
0
 30
0
  0
LWPOLYLINE
  5
1D8
100
AcDbEntity
  8
0
100
AcDbPolyline
 90
5
 70
1
 10
0
 20
0
 40
0
 41
0
 10
0
 20
-190
 40
0
 41
0
 10
667
 20
-190
 40
0
 41
0
 10
667
 20
0
 40
0
 41
0
 10
0
 20
0
 40
0
 41
0
  0
TEXT
  5
1D9
100
AcDbEntity
  8
0
 62
7
100
AcDbText
 10
20
 20
-10
 30
0
 40
20
  1
Tekening
 50
0
 41
1
 72
0
 11
20
 21
-10
 31
0
100
AcDbText
 73
3
  0
TEXT
  5
1DA
100
AcDbEntity
  8
0
 62
7
100
AcDbText
 10
20
 20
-40
 30
0
 40
20
  1
Verdieping
 50
0
 41
1
 72
0
 11
20
 21
-40
 31
0
100
AcDbText
 73
3
  0
TEXT
  5
1DB
100
AcDbEntity
  8
0
 62
7
100
AcDbText
 10
20
 20
-70
 30
0
 40
20
  1
Gebouw
 50
0
 41
1
 72
0
 11
20
 21
-70
 31
0
100
AcDbText
 73
3
  0
TEXT
  5
1DC
100
AcDbEntity
  8
0
 62
7
100
AcDbText
 10
20
 20
-100
 30
0
 40
20
  1
Site
 50
0
 41
1
 72
0
 11
20
 21
-100
 31
0
100
AcDbText
 73
3
  0
TEXT
  5
1DD
100
AcDbEntity
  8
0
 62
7
100
AcDbText
 10
20
 20
-130
 30
0
 40
20
  1
Regio
 50
0
 41
1
 72
0
 11
20
 21
-130
 31
0
100
AcDbText
 73
3
  0
TEXT
  5
1DE
100
AcDbEntity
  8
0
 62
7
100
AcDbText
 10
20
 20
-160
 30
0
 40
20
  1
Vastgoedeenheid
 50
0
 41
1
 72
0
 11
20
 21
-160
 31
0
100
AcDbText
 73
3
  0
LINE
  5
1DF
100
AcDbEntity
  8
0
100
AcDbLine
 10
0
 20
-35
 30
0
 11
250
 21
-35
 31
0
  0
LINE
  5
1E0
100
AcDbEntity
  8
0
100
AcDbLine
 10
0
 20
-65
 30
0
 11
250
 21
-65
 31
0
  0
LINE
  5
1E1
100
AcDbEntity
  8
0
100
AcDbLine
 10
0
 20
-95
 30
0
 11
250
 21
-95
 31
0
  0
LINE
  5
1E2
100
AcDbEntity
  8
0
100
AcDbLine
 10
0
 20
-125
 30
0
 11
250
 21
-125
 31
0
  0
LINE
  5
1E3
100
AcDbEntity
  8
0
100
AcDbLine
 10
0
 20
-155
 30
0
 11
250
 21
-155
 31
0
  0
TEXT
  5
1E4
100
AcDbEntity
  8
0
 62
7
100
AcDbText
 10
270
 20
-10
 30
0
 40
20
  1
31202G01 V0
 50
0
 41
1
 72
0
 11
270
 21
-10
 31
0
100
AcDbText
 73
3
  0
TEXT
  5
1E5
100
AcDbEntity
  8
0
 62
7
100
AcDbText
 10
270
 20
-40
 30
0
 40
20
  1
31202G01 V0
 50
0
 41
1
 72
0
 11
270
 21
-40
 31
0
100
AcDbText
 73
3
  0
TEXT
  5
1E6
100
AcDbEntity
  8
0
 62
7
100
AcDbText
 10
270
 20
-70
 30
0
 40
20
  1
31202G01
 50
0
 41
1
 72
0
 11
270
 21
-70
 31
0
100
AcDbText
 73
3
  0
TEXT
  5
1E7
100
AcDbEntity
  8
0
 62
7
100
AcDbText
 10
270
 20
-100
 30
0
 40
20
  1
BRASSCHAAT Lage Kaart 538
 50
0
 41
1
 72
0
 11
270
 21
-100
 31
0
100
AcDbText
 73
3
  0
TEXT
  5
1E8
100
AcDbEntity
  8
0
 62
7
100
AcDbText
 10
270
 20
-130
 30
0
 40
20
  1
SGR 03 INVENTO
 50
0
 41
1
 72
0
 11
270
 21
-130
 31
0
100
AcDbText
 73
3
  0
TEXT
  5
1E9
100
AcDbEntity
  8
0
 62
7
100
AcDbText
 10
270
 20
-160
 30
0
 40
20
  1

 50
0
 41
1
 72
0
 11
270
 21
-160
 31
0
100
AcDbText
 73
3
  0
LINE
  5
1EA
100
AcDbEntity
  8
0
100
AcDbLine
 10
250
 20
-35
 30
0
 11
667
 21
-35
 31
0
  0
LINE
  5
1EB
100
AcDbEntity
  8
0
100
AcDbLine
 10
250
 20
-65
 30
0
 11
667
 21
-65
 31
0
  0
LINE
  5
1EC
100
AcDbEntity
  8
0
100
AcDbLine
 10
250
 20
-95
 30
0
 11
667
 21
-95
 31
0
  0
LINE
  5
1ED
100
AcDbEntity
  8
0
100
AcDbLine
 10
250
 20
-125
 30
0
 11
667
 21
-125
 31
0
  0
LINE
  5
1EE
100
AcDbEntity
  8
0
100
AcDbLine
 10
250
 20
-155
 30
0
 11
667
 21
-155
 31
0
  0
LINE
  5
1EF
100
AcDbEntity
  8
0
100
AcDbLine
 10
250
 20
0
 30
0
 11
250
 21
-190
 31
0
  0
ENDBLK
  5
1D7
100
AcDbEntity
100
AcDbBlockEnd
  0
BLOCK
  5
1F5
100
AcDbEntity
100
AcDbBlockBegin
  2
*Model_Space
 70
1
 10
0
 20
0
 30
0
  0
ENDBLK
  5
1F6
100
AcDbEntity
100
AcDbBlockEnd
  0
BLOCK
  5
1F8
100
AcDbEntity
100
AcDbBlockBegin
  2
*Paper_Space
 70
1
 10
0
 20
0
 30
0
  0
ENDBLK
  5
1F9
100
AcDbEntity
100
AcDbBlockEnd
  0
ENDSEC
  0
SECTION
  2
ENTITIES
  0
HATCH
  5
67
100
AcDbEntity
  8
090_MAPPING_Lokaal categorie groep
420
11915771
100
AcDbHatch
 10
0.0
 20
0.0
 30
0.0
210
0.0
220
0.0
230
1.0
  2
SOLID
 70
1
 71
0
 91
1
 92
22
 72
1
 73
1
 93
4
 10
158832.01189433
 20
222445.101822063
 42
0
 10
158830.338276796
 20
222444.002050176
 42
0
 10
158829.445800781
 20
222445.354853854
 42
0
 10
158831.119805433
 20
222446.454874862
 42
0
 97
0
 75
1
 76
1
 47
0.0
 98
1
 10
0.0
 20
0.0
  0
LWPOLYLINE
  5
68
100
AcDbEntity
  8
090_MAPPING_Lokaal categorie groep
100
AcDbPolyline
 90
5
 70
0
 10
158832.01189433
 20
222445.101822063
 40
0
 41
0
 10
158830.338276796
 20
222444.002050176
 40
0
 41
0
 10
158829.445800781
 20
222445.354853854
 40
0
 41
0
 10
158831.119805433
 20
222446.454874862
 40
0
 41
0
 10
158832.01189433
 20
222445.101822063
 40
0
 41
0
  0
HATCH
  5
69
100
AcDbEntity
  8
090_MAPPING_Lokaal categorie groep
420
12510413
100
AcDbHatch
 10
0.0
 20
0.0
 30
0.0
210
0.0
220
0.0
230
1.0
  2
SOLID
 70
1
 71
0
 91
1
 92
22
 72
1
 73
1
 93
86
 10
158853.373460388
 20
222452.936973007
 42
0
 10
158851.69817392
 20
222451.849156231
 42
0
 10
158851.129071589
 20
222452.715082313
 42
0
 10
158850.019482549
 20
222454.403393956
 42
0
 10
158849.510302822
 20
222455.178143912
 42
0
 10
158849.239280417
 20
222454.999279202
 42
0
 10
158849.33314266
 20
222454.857055669
 42
0
 10
158848.63333076
 20
222454.398728156
 42
0
 10
158848.541087825
 20
222454.538498054
 42
0
 10
158846.590560837
 20
222453.251222774
 42
0
 10
158846.679468368
 20
222453.116506803
 42
0
 10
158846.023023681
 20
222452.685561095
 42
0
 10
158845.935165881
 20
222452.818686474
 42
0
 10
158845.748917058
 20
222452.695769177
 42
0
 10
158845.836749062
 20
222452.562682884
 42
0
 10
158845.186725462
 20
222452.131490826
 42
0
 10
158845.097881756
 20
222452.266110087
 42
0
 10
158843.123932342
 20
222450.963376876
 42
0
 10
158843.21185459
 20
222450.830153843
 42
0
 10
158842.542402537
 20
222450.391932154
 42
0
 10
158842.456131527
 20
222450.52265317
 42
0
 10
158842.270188553
 20
222450.399937722
 42
0
 10
158842.360846561
 20
222450.262569363
 42
0
 10
158841.699567709
 20
222449.827017082
 42
0
 10
158841.609308363
 20
222449.963781372
 42
0
 10
158839.537782106
 20
222448.596651073
 42
0
 10
158839.63259599
 20
222448.45298558
 42
0
 10
158838.970026288
 20
222448.012431492
 42
0
 10
158838.873703246
 20
222448.15838372
 42
0
 10
158838.693394391
 20
222448.03938658
 42
0
 10
158838.782109189
 20
222447.904962646
 42
0
 10
158838.117351725
 20
222447.464952806
 42
0
 10
158838.028041748
 20
222447.600278578
 42
0
 10
158834.65205566
 20
222445.380728909
 42
0
 10
158834.650763154
 20
222445.38266409
 42
0
 10
158834.604903449
 20
222445.352034428
 42
0
 10
158833.986006614
 20
222446.28452613
 42
0
 10
158834.029159936
 20
222446.313348201
 42
0
 10
158834.003160401
 20
222446.352275533
 42
0
 10
158834.750952862
 20
222446.838386334
 42
0
 10
158834.629373726
 20
222447.010459265
 42
0
 10
158834.662326847
 20
222447.032357853
 42
0
 10
158835.335480721
 20
222447.479693904
 42
0
 10
158835.370425681
 20
222447.502916144
 42
0
 10
158835.492849484
 20
222447.314986404
 42
0
 10
158835.624666869
 20
222447.403020623
 42
0
 10
158835.43052096
 20
222447.669578668
 42
0
 10
158836.100699131
 20
222448.108498174
 42
0
 10
158836.282737504
 20
222447.842512987
 42
0
 10
158837.390156663
 20
222448.582102688
 42
0
 10
158837.294891197
 20
222448.726024802
 42
0
 10
158837.949746963
 20
222449.160445363
 42
0
 10
158838.049840752
 20
222449.009310444
 42
0
 10
158838.236388089
 20
222449.132790557
 42
0
 10
158838.136699611
 20
222449.283313152
 42
0
 10
158838.793667651
 20
222449.716182414
 42
0
 10
158838.884080408
 20
222449.579591521
 42
0
 10
158840.95686444
 20
222450.948116785
 42
0
 10
158840.868410582
 20
222451.082090011
 42
0
 10
158841.523456956
 20
222451.520174021
 42
0
 10
158841.625164662
 20
222451.362598375
 42
0
 10
158841.815043528
 20
222451.487963112
 42
0
 10
158841.718165095
 20
222451.638224287
 42
0
 10
158842.381764093
 20
222452.075925182
 42
0
 10
158842.475657127
 20
222451.935583717
 42
0
 10
158844.446074884
 20
222453.240208848
 42
0
 10
158844.355649772
 20
222453.376780836
 42
0
 10
158845.009590091
 20
222453.81561297
 42
0
 10
158845.102710065
 20
222453.674970845
 42
0
 10
158845.289337517
 20
222453.798537974
 42
0
 10
158845.201202858
 20
222453.931650616
 42
0
 10
158845.85320036
 20
222454.369643793
 42
0
 10
158845.944235822
 20
222454.232149975
 42
0
 10
158847.889289627
 20
222455.519981485
 42
0
 10
158847.798291393
 20
222455.657419078
 42
0
 10
158848.508017513
 20
222456.125476237
 42
0
 10
158848.598161104
 20
222455.98932944
 42
0
 10
158848.996107154
 20
222456.252811849
 42
0
 10
158848.908081636
 20
222456.385759651
 42
0
 10
158849.619291125
 20
222456.851551781
 42
0
 10
158849.704967285
 20
222456.722152291
 42
0
 10
158850.651832595
 20
222457.349077355
 42
0
 10
158851.306143755
 20
222456.357476216
 42
0
 10
158851.171652217
 20
222456.26939373
 42
0
 10
158851.801287116
 20
222455.31644587
 42
0
 10
158852.695424803
 20
222453.963174955
 42
0
 97
0
 75
1
 76
1
 47
0.0
 98
1
 10
0.0
 20
0.0
  0
LWPOLYLINE
  5
6A
100
AcDbEntity
  8
090_MAPPING_Lokaal categorie groep
100
AcDbPolyline
 90
87
 70
0
 10
158853.373460388
 20
222452.936973007
 40
0
 41
0
 10
158851.69817392
 20
222451.849156231
 40
0
 41
0
 10
158851.129071589
 20
222452.715082313
 40
0
 41
0
 10
158850.019482549
 20
222454.403393956
 40
0
 41
0
 10
158849.510302822
 20
222455.178143912
 40
0
 41
0
 10
158849.239280417
 20
222454.999279202
 40
0
 41
0
 10
158849.33314266
 20
222454.857055669
 40
0
 41
0
 10
158848.63333076
 20
222454.398728156
 40
0
 41
0
 10
158848.541087825
 20
222454.538498054
 40
0
 41
0
 10
158846.590560837
 20
222453.251222774
 40
0
 41
0
 10
158846.679468368
 20
222453.116506803
 40
0
 41
0
 10
158846.023023681
 20
222452.685561095
 40
0
 41
0
 10
158845.935165881
 20
222452.818686474
 40
0
 41
0
 10
158845.748917058
 20
222452.695769177
 40
0
 41
0
 10
158845.836749062
 20
222452.562682884
 40
0
 41
0
 10
158845.186725462
 20
222452.131490826
 40
0
 41
0
 10
158845.097881756
 20
222452.266110087
 40
0
 41
0
 10
158843.123932342
 20
222450.963376876
 40
0
 41
0
 10
158843.21185459
 20
222450.830153843
 40
0
 41
0
 10
158842.542402537
 20
222450.391932154
 40
0
 41
0
 10
158842.456131527
 20
222450.52265317
 40
0
 41
0
 10
158842.270188553
 20
222450.399937722
 40
0
 41
0
 10
158842.360846561
 20
222450.262569363
 40
0
 41
0
 10
158841.699567709
 20
222449.827017082
 40
0
 41
0
 10
158841.609308363
 20
222449.963781372
 40
0
 41
0
 10
158839.537782106
 20
222448.596651073
 40
0
 41
0
 10
158839.63259599
 20
222448.45298558
 40
0
 41
0
 10
158838.970026288
 20
222448.012431492
 40
0
 41
0
 10
158838.873703246
 20
222448.15838372
 40
0
 41
0
 10
158838.693394391
 20
222448.03938658
 40
0
 41
0
 10
158838.782109189
 20
222447.904962646
 40
0
 41
0
 10
158838.117351725
 20
222447.464952806
 40
0
 41
0
 10
158838.028041748
 20
222447.600278578
 40
0
 41
0
 10
158834.65205566
 20
222445.380728909
 40
0
 41
0
 10
158834.650763154
 20
222445.38266409
 40
0
 41
0
 10
158834.604903449
 20
222445.352034428
 40
0
 41
0
 10
158833.986006614
 20
222446.28452613
 40
0
 41
0
 10
158834.029159936
 20
222446.313348201
 40
0
 41
0
 10
158834.003160401
 20
222446.352275533
 40
0
 41
0
 10
158834.750952862
 20
222446.838386334
 40
0
 41
0
 10
158834.629373726
 20
222447.010459265
 40
0
 41
0
 10
158834.662326847
 20
222447.032357853
 40
0
 41
0
 10
158835.335480721
 20
222447.479693904
 40
0
 41
0
 10
158835.370425681
 20
222447.502916144
 40
0
 41
0
 10
158835.492849484
 20
222447.314986404
 40
0
 41
0
 10
158835.624666869
 20
222447.403020623
 40
0
 41
0
 10
158835.43052096
 20
222447.669578668
 40
0
 41
0
 10
158836.100699131
 20
222448.108498174
 40
0
 41
0
 10
158836.282737504
 20
222447.842512987
 40
0
 41
0
 10
158837.390156663
 20
222448.582102688
 40
0
 41
0
 10
158837.294891197
 20
222448.726024802
 40
0
 41
0
 10
158837.949746963
 20
222449.160445363
 40
0
 41
0
 10
158838.049840752
 20
222449.009310444
 40
0
 41
0
 10
158838.236388089
 20
222449.132790557
 40
0
 41
0
 10
158838.136699611
 20
222449.283313152
 40
0
 41
0
 10
158838.793667651
 20
222449.716182414
 40
0
 41
0
 10
158838.884080408
 20
222449.579591521
 40
0
 41
0
 10
158840.95686444
 20
222450.948116785
 40
0
 41
0
 10
158840.868410582
 20
222451.082090011
 40
0
 41
0
 10
158841.523456956
 20
222451.520174021
 40
0
 41
0
 10
158841.625164662
 20
222451.362598375
 40
0
 41
0
 10
158841.815043528
 20
222451.487963112
 40
0
 41
0
 10
158841.718165095
 20
222451.638224287
 40
0
 41
0
 10
158842.381764093
 20
222452.075925182
 40
0
 41
0
 10
158842.475657127
 20
222451.935583717
 40
0
 41
0
 10
158844.446074884
 20
222453.240208848
 40
0
 41
0
 10
158844.355649772
 20
222453.376780836
 40
0
 41
0
 10
158845.009590091
 20
222453.81561297
 40
0
 41
0
 10
158845.102710065
 20
222453.674970845
 40
0
 41
0
 10
158845.289337517
 20
222453.798537974
 40
0
 41
0
 10
158845.201202858
 20
222453.931650616
 40
0
 41
0
 10
158845.85320036
 20
222454.369643793
 40
0
 41
0
 10
158845.944235822
 20
222454.232149975
 40
0
 41
0
 10
158847.889289627
 20
222455.519981485
 40
0
 41
0
 10
158847.798291393
 20
222455.657419078
 40
0
 41
0
 10
158848.508017513
 20
222456.125476237
 40
0
 41
0
 10
158848.598161104
 20
222455.98932944
 40
0
 41
0
 10
158848.996107154
 20
222456.252811849
 40
0
 41
0
 10
158848.908081636
 20
222456.385759651
 40
0
 41
0
 10
158849.619291125
 20
222456.851551781
 40
0
 41
0
 10
158849.704967285
 20
222456.722152291
 40
0
 41
0
 10
158850.651832595
 20
222457.349077355
 40
0
 41
0
 10
158851.306143755
 20
222456.357476216
 40
0
 41
0
 10
158851.171652217
 20
222456.26939373
 40
0
 41
0
 10
158851.801287116
 20
222455.31644587
 40
0
 41
0
 10
158852.695424803
 20
222453.963174955
 40
0
 41
0
 10
158853.373460388
 20
222452.936973007
 40
0
 41
0
  0
HATCH
  5
6B
100
AcDbEntity
  8
090_MAPPING_Lokaal categorie groep
420
12510413
100
AcDbHatch
 10
0.0
 20
0.0
 30
0.0
210
0.0
220
0.0
230
1.0
  2
SOLID
 70
1
 71
0
 91
1
 92
22
 72
1
 73
1
 93
10
 10
158851.372337847
 20
222456.348875469
 42
0
 10
158851.347842993
 20
222456.385423477
 42
0
 10
158851.306143755
 20
222456.357476216
 42
0
 10
158850.651832595
 20
222457.349077355
 42
0
 10
158850.686444939
 20
222457.372274907
 42
0
 10
158850.663925551
 20
222457.405875385
 42
0
 10
158852.522056931
 20
222458.63943952
 42
0
 10
158853.212295397
 20
222457.59820642
 42
0
 10
158853.143734591
 20
222457.55862253
 42
0
 10
158853.157974955
 20
222457.537932143
 42
0
 97
0
 75
1
 76
1
 47
0.0
 98
1
 10
0.0
 20
0.0
  0
LWPOLYLINE
  5
6C
100
AcDbEntity
  8
090_MAPPING_Lokaal categorie groep
100
AcDbPolyline
 90
11
 70
0
 10
158851.372337847
 20
222456.348875469
 40
0
 41
0
 10
158851.347842993
 20
222456.385423477
 40
0
 41
0
 10
158851.306143755
 20
222456.357476216
 40
0
 41
0
 10
158850.651832595
 20
222457.349077355
 40
0
 41
0
 10
158850.686444939
 20
222457.372274907
 40
0
 41
0
 10
158850.663925551
 20
222457.405875385
 40
0
 41
0
 10
158852.522056931
 20
222458.63943952
 40
0
 41
0
 10
158853.212295397
 20
222457.59820642
 40
0
 41
0
 10
158853.143734591
 20
222457.55862253
 40
0
 41
0
 10
158853.157974955
 20
222457.537932143
 40
0
 41
0
 10
158851.372337847
 20
222456.348875469
 40
0
 41
0
  0
HATCH
  5
6D
100
AcDbEntity
  8
090_MAPPING_Lokaal categorie groep
420
12713983
100
AcDbHatch
 10
0.0
 20
0.0
 30
0.0
210
0.0
220
0.0
230
1.0
  2
SOLID
 70
1
 71
0
 91
1
 92
22
 72
1
 73
1
 93
12
 10
158836.312627127
 20
222448.074406948
 42
0
 10
158834.221020847
 20
222451.227343419
 42
0
 10
158835.994262034
 20
222452.410652965
 42
0
 10
158836.027078506
 20
222452.359853175
 42
0
 10
158836.056630389
 20
222452.37894358
 42
0
 10
158836.969329023
 20
222451.00227698
 42
0
 10
158836.923283083
 20
222450.972531476
 42
0
 10
158836.961151765
 20
222450.913910882
 42
0
 10
158836.874530097
 20
222450.85717979
 42
0
 10
158837.985959661
 20
222449.184468273
 42
0
 10
158837.949746963
 20
222449.160445363
 42
0
 10
158837.294891197
 20
222448.726024802
 42
0
 97
0
 75
1
 76
1
 47
0.0
 98
1
 10
0.0
 20
0.0
  0
LWPOLYLINE
  5
6E
100
AcDbEntity
  8
090_MAPPING_Lokaal categorie groep
100
AcDbPolyline
 90
13
 70
0
 10
158836.312627127
 20
222448.074406948
 40
0
 41
0
 10
158834.221020847
 20
222451.227343419
 40
0
 41
0
 10
158835.994262034
 20
222452.410652965
 40
0
 41
0
 10
158836.027078506
 20
222452.359853175
 40
0
 41
0
 10
158836.056630389
 20
222452.37894358
 40
0
 41
0
 10
158836.969329023
 20
222451.00227698
 40
0
 41
0
 10
158836.923283083
 20
222450.972531476
 40
0
 41
0
 10
158836.961151765
 20
222450.913910882
 40
0
 41
0
 10
158836.874530097
 20
222450.85717979
 40
0
 41
0
 10
158837.985959661
 20
222449.184468273
 40
0
 41
0
 10
158837.949746963
 20
222449.160445363
 40
0
 41
0
 10
158837.294891197
 20
222448.726024802
 40
0
 41
0
 10
158836.312627127
 20
222448.074406948
 40
0
 41
0
  0
HATCH
  5
6F
100
AcDbEntity
  8
090_MAPPING_Lokaal categorie groep
420
12713983
100
AcDbHatch
 10
0.0
 20
0.0
 30
0.0
210
0.0
220
0.0
230
1.0
  2
SOLID
 70
1
 71
0
 91
1
 92
22
 72
1
 73
1
 93
10
 10
158839.864545485
 20
222450.421772443
 42
0
 10
158838.793667651
 20
222449.716182414
 42
0
 10
158838.136699611
 20
222449.283313152
 42
0
 10
158838.06368935
 20
222449.235207467
 42
0
 10
158837.082631234
 20
222450.72416472
 42
0
 10
158837.134008776
 20
222450.753882704
 42
0
 10
158836.969329023
 20
222451.00227698
 42
0
 10
158836.056630389
 20
222452.37894358
 42
0
 10
158836.02191871
 20
222452.43130085
 42
0
 10
158837.762564189
 20
222453.571735609
 42
0
 97
0
 75
1
 76
1
 47
0.0
 98
1
 10
0.0
 20
0.0
  0
LWPOLYLINE
  5
70
100
AcDbEntity
  8
090_MAPPING_Lokaal categorie groep
100
AcDbPolyline
 90
11
 70
0
 10
158839.864545485
 20
222450.421772443
 40
0
 41
0
 10
158838.793667651
 20
222449.716182414
 40
0
 41
0
 10
158838.136699611
 20
222449.283313152
 40
0
 41
0
 10
158838.06368935
 20
222449.235207467
 40
0
 41
0
 10
158837.082631234
 20
222450.72416472
 40
0
 41
0
 10
158837.134008776
 20
222450.753882704
 40
0
 41
0
 10
158836.969329023
 20
222451.00227698
 40
0
 41
0
 10
158836.056630389
 20
222452.37894358
 40
0
 41
0
 10
158836.02191871
 20
222452.43130085
 40
0
 41
0
 10
158837.762564189
 20
222453.571735609
 40
0
 41
0
 10
158839.864545485
 20
222450.421772443
 40
0
 41
0
  0
HATCH
  5
71
100
AcDbEntity
  8
090_MAPPING_Lokaal categorie groep
420
12713983
100
AcDbHatch
 10
0.0
 20
0.0
 30
0.0
210
0.0
220
0.0
230
1.0
  2
SOLID
 70
1
 71
0
 91
1
 92
22
 72
1
 73
1
 93
12
 10
158837.337669322
 20
222446.94887296
 42
0
 10
158838.117351725
 20
222447.464952806
 42
0
 10
158838.782109189
 20
222447.904962646
 42
0
 10
158838.81362893
 20
222447.925825888
 42
0
 10
158839.912245018
 20
222446.251256312
 42
0
 10
158840.018563696
 20
222446.312008996
 42
0
 10
158840.058502515
 20
222446.251466956
 42
0
 10
158840.094263756
 20
222446.275058194
 42
0
 10
158841.009514747
 20
222444.871263763
 42
0
 10
158840.981288721
 20
222444.85264341
 42
0
 10
158841.016302308
 20
222444.799567378
 42
0
 10
158839.447603536
 20
222443.761229437
 42
0
 97
0
 75
1
 76
1
 47
0.0
 98
1
 10
0.0
 20
0.0
  0
LWPOLYLINE
  5
72
100
AcDbEntity
  8
090_MAPPING_Lokaal categorie groep
100
AcDbPolyline
 90
13
 70
0
 10
158837.337669322
 20
222446.94887296
 40
0
 41
0
 10
158838.117351725
 20
222447.464952806
 40
0
 41
0
 10
158838.782109189
 20
222447.904962646
 40
0
 41
0
 10
158838.81362893
 20
222447.925825888
 40
0
 41
0
 10
158839.912245018
 20
222446.251256312
 40
0
 41
0
 10
158840.018563696
 20
222446.312008996
 40
0
 41
0
 10
158840.058502515
 20
222446.251466956
 40
0
 41
0
 10
158840.094263756
 20
222446.275058194
 40
0
 41
0
 10
158841.009514747
 20
222444.871263763
 40
0
 41
0
 10
158840.981288721
 20
222444.85264341
 40
0
 41
0
 10
158841.016302308
 20
222444.799567378
 40
0
 41
0
 10
158839.447603536
 20
222443.761229437
 40
0
 41
0
 10
158837.337669322
 20
222446.94887296
 40
0
 41
0
  0
HATCH
  5
73
100
AcDbEntity
  8
090_MAPPING_Lokaal categorie groep
420
12713983
100
AcDbHatch
 10
0.0
 20
0.0
 30
0.0
210
0.0
220
0.0
230
1.0
  2
SOLID
 70
1
 71
0
 91
1
 92
22
 72
1
 73
1
 93
12
 10
158840.000557377
 20
222450.501684369
 42
0
 10
158837.900867163
 20
222453.65273194
 42
0
 10
158839.56113479
 20
222454.766966425
 42
0
 10
158839.584618734
 20
222454.731650657
 42
0
 10
158839.61582355
 20
222454.752400939
 42
0
 10
158840.588461827
 20
222453.299625347
 42
0
 10
158840.552690788
 20
222453.275838661
 42
0
 10
158840.551782102
 20
222453.277205167
 42
0
 10
158840.456262845
 20
222453.206804648
 42
0
 10
158841.565287648
 20
222451.548149685
 42
0
 10
158841.523456956
 20
222451.520174021
 42
0
 10
158840.868410582
 20
222451.082090011
 42
0
 97
0
 75
1
 76
1
 47
0.0
 98
1
 10
0.0
 20
0.0
  0
LWPOLYLINE
  5
74
100
AcDbEntity
  8
090_MAPPING_Lokaal categorie groep
100
AcDbPolyline
 90
13
 70
0
 10
158840.000557377
 20
222450.501684369
 40
0
 41
0
 10
158837.900867163
 20
222453.65273194
 40
0
 41
0
 10
158839.56113479
 20
222454.766966425
 40
0
 41
0
 10
158839.584618734
 20
222454.731650657
 40
0
 41
0
 10
158839.61582355
 20
222454.752400939
 40
0
 41
0
 10
158840.588461827
 20
222453.299625347
 40
0
 41
0
 10
158840.552690788
 20
222453.275838661
 40
0
 41
0
 10
158840.551782102
 20
222453.277205167
 40
0
 41
0
 10
158840.456262845
 20
222453.206804648
 40
0
 41
0
 10
158841.565287648
 20
222451.548149685
 40
0
 41
0
 10
158841.523456956
 20
222451.520174021
 40
0
 41
0
 10
158840.868410582
 20
222451.082090011
 40
0
 41
0
 10
158840.000557377
 20
222450.501684369
 40
0
 41
0
  0
HATCH
  5
75
100
AcDbEntity
  8
090_MAPPING_Lokaal categorie groep
420
12713983
100
AcDbHatch
 10
0.0
 20
0.0
 30
0.0
210
0.0
220
0.0
230
1.0
  2
SOLID
 70
1
 71
0
 91
1
 92
22
 72
1
 73
1
 93
10
 10
158840.694882753
 20
222449.159318475
 42
0
 10
158842.798785183
 20
222445.978360749
 42
0
 10
158841.043753373
 20
222444.818749214
 42
0
 10
158841.009514747
 20
222444.871263763
 42
0
 10
158840.094263756
 20
222446.275058194
 42
0
 10
158839.950639933
 20
222446.49534566
 42
0
 10
158839.899685495
 20
222446.461974091
 42
0
 10
158838.902093451
 20
222447.96726177
 42
0
 10
158838.970026288
 20
222448.012431492
 42
0
 10
158839.63259599
 20
222448.45298558
 42
0
 97
0
 75
1
 76
1
 47
0.0
 98
1
 10
0.0
 20
0.0
  0
LWPOLYLINE
  5
76
100
AcDbEntity
  8
090_MAPPING_Lokaal categorie groep
100
AcDbPolyline
 90
11
 70
0
 10
158840.694882753
 20
222449.159318475
 40
0
 41
0
 10
158842.798785183
 20
222445.978360749
 40
0
 41
0
 10
158841.043753373
 20
222444.818749214
 40
0
 41
0
 10
158841.009514747
 20
222444.871263763
 40
0
 41
0
 10
158840.094263756
 20
222446.275058194
 40
0
 41
0
 10
158839.950639933
 20
222446.49534566
 40
0
 41
0
 10
158839.899685495
 20
222446.461974091
 40
0
 41
0
 10
158838.902093451
 20
222447.96726177
 40
0
 41
0
 10
158838.970026288
 20
222448.012431492
 40
0
 41
0
 10
158839.63259599
 20
222448.45298558
 40
0
 41
0
 10
158840.694882753
 20
222449.159318475
 40
0
 41
0
  0
HATCH
  5
77
100
AcDbEntity
  8
090_MAPPING_Lokaal categorie groep
420
12713983
100
AcDbHatch
 10
0.0
 20
0.0
 30
0.0
210
0.0
220
0.0
230
1.0
  2
SOLID
 70
1
 71
0
 91
1
 92
22
 72
1
 73
1
 93
10
 10
158843.339726834
 20
222452.707784408
 42
0
 10
158842.381764093
 20
222452.075925182
 42
0
 10
158841.718165095
 20
222451.638224287
 42
0
 10
158841.647036694
 20
222451.591308959
 42
0
 10
158840.652562611
 20
222453.09903264
 42
0
 10
158840.702581407
 20
222453.130497441
 42
0
 10
158840.588461827
 20
222453.299625347
 42
0
 10
158839.61582355
 20
222454.752400939
 42
0
 10
158839.590322321
 20
222454.790490704
 42
0
 10
158841.254056814
 20
222455.873381076
 42
0
 97
0
 75
1
 76
1
 47
0.0
 98
1
 10
0.0
 20
0.0
  0
LWPOLYLINE
  5
78
100
AcDbEntity
  8
090_MAPPING_Lokaal categorie groep
100
AcDbPolyline
 90
11
 70
0
 10
158843.339726834
 20
222452.707784408
 40
0
 41
0
 10
158842.381764093
 20
222452.075925182
 40
0
 41
0
 10
158841.718165095
 20
222451.638224287
 40
0
 41
0
 10
158841.647036694
 20
222451.591308959
 40
0
 41
0
 10
158840.652562611
 20
222453.09903264
 40
0
 41
0
 10
158840.702581407
 20
222453.130497441
 40
0
 41
0
 10
158840.588461827
 20
222453.299625347
 40
0
 41
0
 10
158839.61582355
 20
222454.752400939
 40
0
 41
0
 10
158839.590322321
 20
222454.790490704
 40
0
 41
0
 10
158841.254056814
 20
222455.873381076
 40
0
 41
0
 10
158843.339726834
 20
222452.707784408
 40
0
 41
0
  0
HATCH
  5
79
100
AcDbEntity
  8
090_MAPPING_Lokaal categorie groep
420
12713983
100
AcDbHatch
 10
0.0
 20
0.0
 30
0.0
210
0.0
220
0.0
230
1.0
  2
SOLID
 70
1
 71
0
 91
1
 92
22
 72
1
 73
1
 93
12
 10
158842.920290953
 20
222446.065362729
 42
0
 10
158840.822962306
 20
222449.249639653
 42
0
 10
158841.699567709
 20
222449.827017082
 42
0
 10
158842.360846561
 20
222450.262569363
 42
0
 10
158842.400317164
 20
222450.288566734
 42
0
 10
158843.453679303
 20
222448.666615376
 42
0
 10
158843.550991965
 20
222448.727656352
 42
0
 10
158843.572908251
 20
222448.694490437
 42
0
 10
158843.601140706
 20
222448.713146656
 42
0
 10
158844.573803695
 20
222447.240115096
 42
0
 10
158844.546077526
 20
222447.221793435
 42
0
 10
158844.582449206
 20
222447.166752174
 42
0
 97
0
 75
1
 76
1
 47
0.0
 98
1
 10
0.0
 20
0.0
  0
LWPOLYLINE
  5
7A
100
AcDbEntity
  8
090_MAPPING_Lokaal categorie groep
100
AcDbPolyline
 90
13
 70
0
 10
158842.920290953
 20
222446.065362729
 40
0
 41
0
 10
158840.822962306
 20
222449.249639653
 40
0
 41
0
 10
158841.699567709
 20
222449.827017082
 40
0
 41
0
 10
158842.360846561
 20
222450.262569363
 40
0
 41
0
 10
158842.400317164
 20
222450.288566734
 40
0
 41
0
 10
158843.453679303
 20
222448.666615376
 40
0
 41
0
 10
158843.550991965
 20
222448.727656352
 40
0
 41
0
 10
158843.572908251
 20
222448.694490437
 40
0
 41
0
 10
158843.601140706
 20
222448.713146656
 40
0
 41
0
 10
158844.573803695
 20
222447.240115096
 40
0
 41
0
 10
158844.546077526
 20
222447.221793435
 40
0
 41
0
 10
158844.582449206
 20
222447.166752174
 40
0
 41
0
 10
158842.920290953
 20
222446.065362729
 40
0
 41
0
  0
HATCH
  5
7B
100
AcDbEntity
  8
090_MAPPING_Lokaal categorie groep
420
12713983
100
AcDbHatch
 10
0.0
 20
0.0
 30
0.0
210
0.0
220
0.0
230
1.0
  2
SOLID
 70
1
 71
0
 91
1
 92
22
 72
1
 73
1
 93
12
 10
158843.477485275
 20
222452.787481188
 42
0
 10
158841.388177179
 20
222455.95778045
 42
0
 10
158843.033933591
 20
222457.062172274
 42
0
 10
158843.052712714
 20
222457.033278888
 42
0
 10
158843.100013747
 20
222457.064021975
 42
0
 10
158844.068511786
 20
222455.596695678
 42
0
 10
158844.010794676
 20
222455.55918271
 42
0
 10
158844.007444074
 20
222455.564337915
 42
0
 10
158843.935747252
 20
222455.512965768
 42
0
 10
158845.051690295
 20
222453.843864665
 42
0
 10
158845.009590091
 20
222453.81561297
 42
0
 10
158844.355649772
 20
222453.376780836
 42
0
 97
0
 75
1
 76
1
 47
0.0
 98
1
 10
0.0
 20
0.0
  0
LWPOLYLINE
  5
7C
100
AcDbEntity
  8
090_MAPPING_Lokaal categorie groep
100
AcDbPolyline
 90
13
 70
0
 10
158843.477485275
 20
222452.787481188
 40
0
 41
0
 10
158841.388177179
 20
222455.95778045
 40
0
 41
0
 10
158843.033933591
 20
222457.062172274
 40
0
 41
0
 10
158843.052712714
 20
222457.033278888
 40
0
 41
0
 10
158843.100013747
 20
222457.064021975
 40
0
 41
0
 10
158844.068511786
 20
222455.596695678
 40
0
 41
0
 10
158844.010794676
 20
222455.55918271
 40
0
 41
0
 10
158844.007444074
 20
222455.564337915
 40
0
 41
0
 10
158843.935747252
 20
222455.512965768
 40
0
 41
0
 10
158845.051690295
 20
222453.843864665
 40
0
 41
0
 10
158845.009590091
 20
222453.81561297
 40
0
 41
0
 10
158844.355649772
 20
222453.376780836
 40
0
 41
0
 10
158843.477485275
 20
222452.787481188
 40
0
 41
0
  0
HATCH
  5
7D
100
AcDbEntity
  8
090_MAPPING_Lokaal categorie groep
420
12713983
100
AcDbHatch
 10
0.0
 20
0.0
 30
0.0
210
0.0
220
0.0
230
1.0
  2
SOLID
 70
1
 71
0
 91
1
 92
22
 72
1
 73
1
 93
10
 10
158844.612414968
 20
222447.181640964
 42
0
 10
158844.573803695
 20
222447.240115096
 42
0
 10
158843.601140706
 20
222448.713146656
 42
0
 10
158843.562725811
 20
222448.771323387
 42
0
 10
158843.514394519
 20
222448.742361759
 42
0
 10
158842.468904054
 20
222450.343820226
 42
0
 10
158842.542402537
 20
222450.391932154
 42
0
 10
158843.21185459
 20
222450.830153843
 42
0
 10
158844.171623695
 20
222451.458416368
 42
0
 10
158846.274183292
 20
222448.26998219
 42
0
 97
0
 75
1
 76
1
 47
0.0
 98
1
 10
0.0
 20
0.0
  0
LWPOLYLINE
  5
7E
100
AcDbEntity
  8
090_MAPPING_Lokaal categorie groep
100
AcDbPolyline
 90
11
 70
0
 10
158844.612414968
 20
222447.181640964
 40
0
 41
0
 10
158844.573803695
 20
222447.240115096
 40
0
 41
0
 10
158843.601140706
 20
222448.713146656
 40
0
 41
0
 10
158843.562725811
 20
222448.771323387
 40
0
 41
0
 10
158843.514394519
 20
222448.742361759
 40
0
 41
0
 10
158842.468904054
 20
222450.343820226
 40
0
 41
0
 10
158842.542402537
 20
222450.391932154
 40
0
 41
0
 10
158843.21185459
 20
222450.830153843
 40
0
 41
0
 10
158844.171623695
 20
222451.458416368
 40
0
 41
0
 10
158846.274183292
 20
222448.26998219
 40
0
 41
0
 10
158844.612414968
 20
222447.181640964
 40
0
 41
0
  0
HATCH
  5
7F
100
AcDbEntity
  8
090_MAPPING_Lokaal categorie groep
420
12713983
100
AcDbHatch
 10
0.0
 20
0.0
 30
0.0
210
0.0
220
0.0
230
1.0
  2
SOLID
 70
1
 71
0
 91
1
 92
22
 72
1
 73
1
 93
10
 10
158846.822954808
 20
222455.021096949
 42
0
 10
158845.85320036
 20
222454.369643793
 42
0
 10
158845.201202858
 20
222453.931650616
 42
0
 10
158845.12396195
 20
222453.879762395
 42
0
 10
158844.52940832
 20
222454.784640193
 42
0
 10
158844.5872873
 20
222454.810723046
 42
0
 10
158844.068511786
 20
222455.596695678
 42
0
 10
158843.100013747
 20
222457.064021975
 42
0
 10
158843.081346455
 20
222457.09230392
 42
0
 10
158844.737953211
 20
222458.169119028
 42
0
 97
0
 75
1
 76
1
 47
0.0
 98
1
 10
0.0
 20
0.0
  0
LWPOLYLINE
  5
80
100
AcDbEntity
  8
090_MAPPING_Lokaal categorie groep
100
AcDbPolyline
 90
11
 70
0
 10
158846.822954808
 20
222455.021096949
 40
0
 41
0
 10
158845.85320036
 20
222454.369643793
 40
0
 41
0
 10
158845.201202858
 20
222453.931650616
 40
0
 41
0
 10
158845.12396195
 20
222453.879762395
 40
0
 41
0
 10
158844.52940832
 20
222454.784640193
 40
0
 41
0
 10
158844.5872873
 20
222454.810723046
 40
0
 41
0
 10
158844.068511786
 20
222455.596695678
 40
0
 41
0
 10
158843.100013747
 20
222457.064021975
 40
0
 41
0
 10
158843.081346455
 20
222457.09230392
 40
0
 41
0
 10
158844.737953211
 20
222458.169119028
 40
0
 41
0
 10
158846.822954808
 20
222455.021096949
 40
0
 41
0
  0
HATCH
  5
81
100
AcDbEntity
  8
090_MAPPING_Lokaal categorie groep
420
12713983
100
AcDbHatch
 10
0.0
 20
0.0
 30
0.0
210
0.0
220
0.0
230
1.0
  2
SOLID
 70
1
 71
0
 91
1
 92
22
 72
1
 73
1
 93
12
 10
158844.303268344
 20
222451.545451037
 42
0
 10
158845.186725462
 20
222452.131490826
 42
0
 10
158845.836749062
 20
222452.562682884
 42
0
 10
158845.874741481
 20
222452.587885091
 42
0
 10
158846.984633429
 20
222450.896584579
 42
0
 10
158847.063859481
 20
222450.945571273
 42
0
 10
158847.06487392
 20
222450.944093424
 42
0
 10
158847.118510291
 20
222450.980910995
 42
0
 10
158848.09507409
 20
222449.509429325
 42
0
 10
158848.064211318
 20
222449.488244217
 42
0
 10
158848.081558816
 20
222449.462972131
 42
0
 10
158846.411719951
 20
222448.366952552
 42
0
 97
0
 75
1
 76
1
 47
0.0
 98
1
 10
0.0
 20
0.0
  0
LWPOLYLINE
  5
82
100
AcDbEntity
  8
090_MAPPING_Lokaal categorie groep
100
AcDbPolyline
 90
13
 70
0
 10
158844.303268344
 20
222451.545451037
 40
0
 41
0
 10
158845.186725462
 20
222452.131490826
 40
0
 41
0
 10
158845.836749062
 20
222452.562682884
 40
0
 41
0
 10
158845.874741481
 20
222452.587885091
 40
0
 41
0
 10
158846.984633429
 20
222450.896584579
 40
0
 41
0
 10
158847.063859481
 20
222450.945571273
 40
0
 41
0
 10
158847.06487392
 20
222450.944093424
 40
0
 41
0
 10
158847.118510291
 20
222450.980910995
 40
0
 41
0
 10
158848.09507409
 20
222449.509429325
 40
0
 41
0
 10
158848.064211318
 20
222449.488244217
 40
0
 41
0
 10
158848.081558816
 20
222449.462972131
 40
0
 41
0
 10
158846.411719951
 20
222448.366952552
 40
0
 41
0
 10
158844.303268344
 20
222451.545451037
 40
0
 41
0
  0
HATCH
  5
83
100
AcDbEntity
  8
090_MAPPING_Lokaal categorie groep
420
12713983
100
AcDbHatch
 10
0.0
 20
0.0
 30
0.0
210
0.0
220
0.0
230
1.0
  2
SOLID
 70
1
 71
0
 91
1
 92
22
 72
1
 73
1
 93
6
 10
158846.954570505
 20
222455.100993733
 42
0
 10
158844.874309381
 20
222458.263096656
 42
0
 10
158846.54190366
 20
222459.372908061
 42
0
 10
158848.628558805
 20
222456.204971993
 42
0
 10
158848.508017513
 20
222456.125476237
 42
0
 10
158847.798291393
 20
222455.657419078
 42
0
 97
0
 75
1
 76
1
 47
0.0
 98
1
 10
0.0
 20
0.0
  0
LWPOLYLINE
  5
84
100
AcDbEntity
  8
090_MAPPING_Lokaal categorie groep
100
AcDbPolyline
 90
7
 70
0
 10
158846.954570505
 20
222455.100993733
 40
0
 41
0
 10
158844.874309381
 20
222458.263096656
 40
0
 41
0
 10
158846.54190366
 20
222459.372908061
 40
0
 41
0
 10
158848.628558805
 20
222456.204971993
 40
0
 41
0
 10
158848.508017513
 20
222456.125476237
 40
0
 41
0
 10
158847.798291393
 20
222455.657419078
 40
0
 41
0
 10
158846.954570505
 20
222455.100993733
 40
0
 41
0
  0
HATCH
  5
85
100
AcDbEntity
  8
090_MAPPING_Lokaal categorie groep
420
12713983
100
AcDbHatch
 10
0.0
 20
0.0
 30
0.0
210
0.0
220
0.0
230
1.0
  2
SOLID
 70
1
 71
0
 91
1
 92
22
 72
1
 73
1
 93
10
 10
158847.645488316
 20
222453.750683844
 42
0
 10
158849.750358925
 20
222450.579982308
 42
0
 10
158848.112422461
 20
222449.483288882
 42
0
 10
158848.09507409
 20
222449.509429325
 42
0
 10
158847.118510291
 20
222450.980910995
 42
0
 10
158846.600195613
 20
222451.761905077
 42
0
 10
158846.544492306
 20
222451.732109327
 42
0
 10
158845.947580943
 20
222452.636034113
 42
0
 10
158846.023023681
 20
222452.685561095
 42
0
 10
158846.679468368
 20
222453.116506803
 42
0
 97
0
 75
1
 76
1
 47
0.0
 98
1
 10
0.0
 20
0.0
  0
LWPOLYLINE
  5
86
100
AcDbEntity
  8
090_MAPPING_Lokaal categorie groep
100
AcDbPolyline
 90
11
 70
0
 10
158847.645488316
 20
222453.750683844
 40
0
 41
0
 10
158849.750358925
 20
222450.579982308
 40
0
 41
0
 10
158848.112422461
 20
222449.483288882
 40
0
 41
0
 10
158848.09507409
 20
222449.509429325
 40
0
 41
0
 10
158847.118510291
 20
222450.980910995
 40
0
 41
0
 10
158846.600195613
 20
222451.761905077
 40
0
 41
0
 10
158846.544492306
 20
222451.732109327
 40
0
 41
0
 10
158845.947580943
 20
222452.636034113
 40
0
 41
0
 10
158846.023023681
 20
222452.685561095
 40
0
 41
0
 10
158846.679468368
 20
222453.116506803
 40
0
 41
0
 10
158847.645488316
 20
222453.750683844
 40
0
 41
0
  0
HATCH
  5
87
100
AcDbEntity
  8
090_MAPPING_Lokaal categorie groep
420
16761312
100
AcDbHatch
 10
0.0
 20
0.0
 30
0.0
210
0.0
220
0.0
230
1.0
  2
SOLID
 70
1
 71
0
 91
1
 92
22
 72
1
 73
1
 93
6
 10
158847.78297689
 20
222453.841806256
 42
0
 10
158848.63333076
 20
222454.398728156
 42
0
 10
158849.33314266
 20
222454.857055669
 42
0
 10
158849.471722393
 20
222454.947815634
 42
0
 10
158851.576820928
 20
222451.770507215
 42
0
 10
158849.883450797
 20
222450.670390335
 42
0
 97
0
 75
1
 76
1
 47
0.0
 98
1
 10
0.0
 20
0.0
  0
LWPOLYLINE
  5
88
100
AcDbEntity
  8
090_MAPPING_Lokaal categorie groep
100
AcDbPolyline
 90
7
 70
0
 10
158847.78297689
 20
222453.841806256
 40
0
 41
0
 10
158848.63333076
 20
222454.398728156
 40
0
 41
0
 10
158849.33314266
 20
222454.857055669
 40
0
 41
0
 10
158849.471722393
 20
222454.947815634
 40
0
 41
0
 10
158851.576820928
 20
222451.770507215
 40
0
 41
0
 10
158849.883450797
 20
222450.670390335
 40
0
 41
0
 10
158847.78297689
 20
222453.841806256
 40
0
 41
0
  0
HATCH
  5
89
100
AcDbEntity
  8
090_MAPPING_Lokaal categorie groep
420
16761312
100
AcDbHatch
 10
0.0
 20
0.0
 30
0.0
210
0.0
220
0.0
230
1.0
  2
SOLID
 70
1
 71
0
 91
1
 92
22
 72
1
 73
1
 93
8
 10
158832.158485761
 20
222445.572694654
 42
0
 10
158830.215955807
 20
222448.538708132
 42
0
 10
158834.08963011
 20
222451.118937881
 42
0
 10
158836.072450829
 20
222448.136066142
 42
0
 10
158835.255863975
 20
222447.601259259
 42
0
 10
158835.335480721
 20
222447.479693904
 42
0
 10
158834.662326847
 20
222447.032357853
 42
0
 10
158834.579745743
 20
222447.158449431
 42
0
 97
0
 75
1
 76
1
 47
0.0
 98
1
 10
0.0
 20
0.0
  0
LWPOLYLINE
  5
8A
100
AcDbEntity
  8
090_MAPPING_Lokaal categorie groep
100
AcDbPolyline
 90
9
 70
0
 10
158832.158485761
 20
222445.572694654
 40
0
 41
0
 10
158830.215955807
 20
222448.538708132
 40
0
 41
0
 10
158834.08963011
 20
222451.118937881
 40
0
 41
0
 10
158836.072450829
 20
222448.136066142
 40
0
 41
0
 10
158835.255863975
 20
222447.601259259
 40
0
 41
0
 10
158835.335480721
 20
222447.479693904
 40
0
 41
0
 10
158834.662326847
 20
222447.032357853
 40
0
 41
0
 10
158834.579745743
 20
222447.158449431
 40
0
 41
0
 10
158832.158485761
 20
222445.572694654
 40
0
 41
0
  0
HATCH
  5
8B
100
AcDbEntity
  8
090_MAPPING_Lokaal categorie groep
420
33023
100
AcDbHatch
 10
0.0
 20
0.0
 30
0.0
210
0.0
220
0.0
230
1.0
  2
SOLID
 70
1
 71
0
 91
1
 92
22
 72
1
 73
1
 93
6
 10
158850.439087645
 20
222457.38846077
 42
0
 10
158849.619291125
 20
222456.851551781
 42
0
 10
158848.908081636
 20
222456.385759651
 42
0
 10
158848.755196603
 20
222456.285630721
 42
0
 10
158846.670187781
 20
222459.454314975
 42
0
 10
158848.340949469
 20
222460.578958055
 42
0
 97
0
 75
1
 76
1
 47
0.0
 98
1
 10
0.0
 20
0.0
  0
LWPOLYLINE
  5
8C
100
AcDbEntity
  8
090_MAPPING_Lokaal categorie groep
100
AcDbPolyline
 90
7
 70
0
 10
158850.439087645
 20
222457.38846077
 40
0
 41
0
 10
158849.619291125
 20
222456.851551781
 40
0
 41
0
 10
158848.908081636
 20
222456.385759651
 40
0
 41
0
 10
158848.755196603
 20
222456.285630721
 40
0
 41
0
 10
158846.670187781
 20
222459.454314975
 40
0
 41
0
 10
158848.340949469
 20
222460.578958055
 40
0
 41
0
 10
158850.439087645
 20
222457.38846077
 40
0
 41
0
  0
LWPOLYLINE
  5
8F
100
AcDbEntity
  8
095_interne constructieoppervlakte-ICA
100
AcDbPolyline
 90
5
 70
1
 10
158833.330926221
 20
222439.445573549
 40
0
 41
0
 10
158833.522623868
 20
222439.152110484
 40
0
 41
0
 10
158833.382992248
 20
222439.066911529
 40
0
 41
0
 10
158833.196027876
 20
222439.362741232
 40
0
 41
0
 10
158833.330926221
 20
222439.445573549
 40
0
 41
0
  0
LWPOLYLINE
  5
90
100
AcDbEntity
  8
095_interne constructieoppervlakte-ICA
100
AcDbPolyline
 90
5
 70
1
 10
158832.875546004
 20
222444.067209737
 40
0
 41
0
 10
158833.073927932
 20
222443.776249575
 40
0
 41
0
 10
158832.938734321
 20
222443.685140838
 40
0
 41
0
 10
158832.738882897
 20
222443.974631503
 40
0
 41
0
 10
158832.875546004
 20
222444.067209737
 40
0
 41
0
  0
LWPOLYLINE
  5
91
100
AcDbEntity
  8
095_interne constructieoppervlakte-ICA
100
AcDbPolyline
 90
5
 70
1
 10
158839.076540045
 20
222442.806360193
 40
0
 41
0
 10
158838.936908425
 20
222442.716427963
 40
0
 41
0
 10
158838.721544401
 20
222443.04775723
 40
0
 41
0
 10
158838.863542658
 20
222443.132956185
 40
0
 41
0
 10
158839.076540045
 20
222442.806360193
 40
0
 41
0
  0
LWPOLYLINE
  5
92
100
AcDbEntity
  8
095_interne constructieoppervlakte-ICA
100
AcDbPolyline
 90
5
 70
1
 10
158835.206601411
 20
222440.260155592
 40
0
 41
0
 10
158834.986101783
 20
222440.600355017
 40
0
 41
0
 10
158835.11210157
 20
222440.682254879
 40
0
 41
0
 10
158835.332601198
 20
222440.342055453
 40
0
 41
0
 10
158835.206601411
 20
222440.260155592
 40
0
 41
0
  0
LWPOLYLINE
  5
94
100
AcDbEntity
  8
090_bouwlaagoppervlakte-LA
100
AcDbPolyline
 90
87
 70
1
 10
158851.570260458
 20
222456.377927553
 40
0
 41
0
 10
158854.019946411
 20
222452.64447134
 40
0
 41
0
 10
158853.885454893
 20
222452.556388855
 40
0
 41
0
 10
158853.677438863
 20
222452.887281664
 40
0
 41
0
 10
158851.808836609
 20
222451.667800892
 40
0
 41
0
 10
158852.031341046
 20
222451.333927281
 40
0
 41
0
 10
158851.898072451
 20
222451.252568062
 40
0
 41
0
 10
158851.685137481
 20
222451.595779937
 40
0
 41
0
 10
158850.005598404
 20
222450.492750119
 40
0
 41
0
 10
158850.230581977
 20
222450.149226822
 40
0
 41
0
 10
158850.097686097
 20
222450.062189378
 40
0
 41
0
 10
158849.882574305
 20
222450.406515148
 40
0
 41
0
 10
158846.518506534
 20
222448.189719781
 40
0
 41
0
 10
158846.746533185
 20
222447.853634667
 40
0
 41
0
 10
158846.614010193
 20
222447.764149468
 40
0
 41
0
 10
158846.386987113
 20
222448.110786855
 40
0
 41
0
 10
158843.028595649
 20
222445.903095823
 40
0
 41
0
 10
158843.246727496
 20
222445.56629765
 40
0
 41
0
 10
158843.113672614
 20
222445.474261597
 40
0
 41
0
 10
158842.900147997
 20
222445.81897166
 40
0
 41
0
 10
158839.348996215
 20
222443.470675793
 40
0
 41
0
 10
158839.573447943
 20
222443.142911162
 40
0
 41
0
 10
158839.438089445
 20
222443.046919163
 40
0
 41
0
 10
158837.055069082
 20
222446.664809283
 40
0
 41
0
 10
158836.672332294
 20
222446.412315827
 40
0
 41
0
 10
158836.793521226
 20
222446.218406308
 40
0
 41
0
 10
158836.668781444
 20
222446.142176434
 40
0
 41
0
 10
158836.547193348
 20
222446.329761013
 40
0
 41
0
 10
158834.745049089
 20
222445.140877038
 40
0
 41
0
 10
158834.604903452
 20
222445.352034427
 40
0
 41
0
 10
158833.986006618
 20
222446.284526136
 40
0
 41
0
 10
158833.93411886
 20
222446.362705398
 40
0
 41
0
 10
158832.020299822
 20
222445.089073248
 40
0
 41
0
 10
158832.01189433
 20
222445.101822063
 40
0
 41
0
 10
158830.338276796
 20
222444.002050176
 40
0
 41
0
 10
158829.445800781
 20
222445.354853854
 40
0
 41
0
 10
158831.119805433
 20
222446.454874862
 40
0
 41
0
 10
158829.492255479
 20
222448.923419241
 40
0
 41
0
 10
158829.621193767
 20
222449.017555811
 40
0
 41
0
 10
158829.844762139
 20
222448.676193342
 40
0
 41
0
 10
158832.632541135
 20
222450.530083329
 40
0
 41
0
 10
158833.151829824
 20
222450.875413455
 40
0
 41
0
 10
158833.942092709
 20
222451.400943082
 40
0
 41
0
 10
158833.732919693
 20
222451.707662065
 40
0
 41
0
 10
158833.859109677
 20
222451.8013395
 40
0
 41
0
 10
158834.081586793
 20
222451.461643241
 40
0
 41
0
 10
158835.345183626
 20
222452.29506211
 40
0
 41
0
 10
158835.828063004
 20
222452.613550387
 40
0
 41
0
 10
158835.884555198
 20
222452.650810432
 40
0
 41
0
 10
158836.31651897
 20
222452.935716763
 40
0
 41
0
 10
158837.639824674
 20
222453.808517262
 40
0
 41
0
 10
158837.405405901
 20
222454.139543131
 40
0
 41
0
 10
158837.544520132
 20
222454.236526538
 40
0
 41
0
 10
158837.766535558
 20
222453.888567288
 40
0
 41
0
 10
158838.959016226
 20
222454.681041166
 40
0
 41
0
 10
158839.402022317
 20
222454.975444906
 40
0
 41
0
 10
158839.455100209
 20
222455.010718305
 40
0
 41
0
 10
158839.899776131
 20
222455.306231741
 40
0
 41
0
 10
158841.107723981
 20
222456.108984489
 40
0
 41
0
 10
158840.887272157
 20
222456.433652002
 40
0
 41
0
 10
158841.017724782
 20
222456.526906744
 40
0
 41
0
 10
158841.243454807
 20
222456.18224369
 40
0
 41
0
 10
158842.402967416
 20
222456.945519723
 40
0
 41
0
 10
158842.889852591
 20
222457.266023167
 40
0
 41
0
 10
158842.940215662
 20
222457.299175825
 40
0
 41
0
 10
158843.384203978
 20
222457.591441408
 40
0
 41
0
 10
158844.61380434
 20
222458.400854338
 40
0
 41
0
 10
158844.387034081
 20
222458.729201186
 40
0
 41
0
 10
158844.519278206
 20
222458.819720514
 40
0
 41
0
 10
158844.740481317
 20
222458.476001363
 40
0
 41
0
 10
158845.963971317
 20
222459.293601126
 40
0
 41
0
 10
158846.379304446
 20
222459.571148347
 40
0
 41
0
 10
158846.408821151
 20
222459.590872955
 40
0
 41
0
 10
158846.174482875
 20
222459.920578372
 40
0
 41
0
 10
158846.322284415
 20
222460.012648407
 40
0
 41
0
 10
158846.542250231
 20
222459.669565156
 40
0
 41
0
 10
158846.576016992
 20
222459.691747449
 40
0
 41
0
 10
158846.962033384
 20
222459.945332017
 40
0
 41
0
 10
158848.392152272
 20
222460.884815645
 40
0
 41
0
 10
158848.16113285
 20
222461.230730791
 40
0
 41
0
 10
158848.298812956
 20
222461.316668239
 40
0
 41
0
 10
158850.764123447
 20
222457.594912268
 40
0
 41
0
 10
158852.474462204
 20
222458.710655581
 40
0
 41
0
 10
158852.52205693
 20
222458.639439523
 40
0
 41
0
 10
158853.212295398
 20
222457.598206423
 40
0
 41
0
 10
158853.275975011
 20
222457.50810333
 40
0
 41
0
 10
158851.570260458
 20
222456.377927553
 40
0
 41
0
  0
LWPOLYLINE
  5
95
100
AcDbEntity
  8
090_bouwlaagoppervlakte-LA
100
AcDbPolyline
 90
5
 70
1
 10
158833.330926221
 20
222439.445573549
 40
0
 41
0
 10
158833.522623868
 20
222439.152110484
 40
0
 41
0
 10
158833.382992248
 20
222439.066911529
 40
0
 41
0
 10
158833.196027876
 20
222439.362741232
 40
0
 41
0
 10
158833.330926221
 20
222439.445573549
 40
0
 41
0
  0
LWPOLYLINE
  5
96
100
AcDbEntity
  8
090_bouwlaagoppervlakte-LA
100
AcDbPolyline
 90
5
 70
1
 10
158832.875546004
 20
222444.067209737
 40
0
 41
0
 10
158833.073927932
 20
222443.776249575
 40
0
 41
0
 10
158832.938734321
 20
222443.685140838
 40
0
 41
0
 10
158832.738882897
 20
222443.974631503
 40
0
 41
0
 10
158832.875546004
 20
222444.067209737
 40
0
 41
0
  0
LWPOLYLINE
  5
97
100
AcDbEntity
  8
090_bouwlaagoppervlakte-LA
100
AcDbPolyline
 90
5
 70
1
 10
158839.076540045
 20
222442.806360193
 40
0
 41
0
 10
158838.936908425
 20
222442.716427963
 40
0
 41
0
 10
158838.721544401
 20
222443.04775723
 40
0
 41
0
 10
158838.863542658
 20
222443.132956185
 40
0
 41
0
 10
158839.076540045
 20
222442.806360193
 40
0
 41
0
  0
LWPOLYLINE
  5
98
100
AcDbEntity
  8
090_bouwlaagoppervlakte-LA
100
AcDbPolyline
 90
5
 70
1
 10
158835.206601411
 20
222440.260155592
 40
0
 41
0
 10
158834.986101783
 20
222440.600355017
 40
0
 41
0
 10
158835.11210157
 20
222440.682254879
 40
0
 41
0
 10
158835.332601198
 20
222440.342055453
 40
0
 41
0
 10
158835.206601411
 20
222440.260155592
 40
0
 41
0
  0
LWPOLYLINE
  5
9A
100
AcDbEntity
  8
050_deur
100
AcDbPolyline
 90
4
 70
1
 10
158849.791470172
 20
222454.157243768
 40
0
 41
0
 10
158849.33314266
 20
222454.857055669
 40
0
 41
0
 10
158848.63333076
 20
222454.398728156
 40
0
 41
0
 10
158849.791470172
 20
222454.157243768
 40
0
 41
0
  0
LWPOLYLINE
  5
9B
100
AcDbEntity
  8
050_deur
100
AcDbPolyline
 90
4
 70
1
 10
158846.453969388
 20
222452.029116408
 40
0
 41
0
 10
158846.023023681
 20
222452.685561095
 40
0
 41
0
 10
158846.679468368
 20
222453.116506803
 40
0
 41
0
 10
158846.453969388
 20
222452.029116408
 40
0
 41
0
  0
LWPOLYLINE
  5
9C
100
AcDbEntity
  8
050_deur
100
AcDbPolyline
 90
4
 70
1
 10
158846.26794112
 20
222451.912659284
 40
0
 41
0
 10
158845.836749062
 20
222452.562682884
 40
0
 41
0
 10
158845.186725462
 20
222452.131490826
 40
0
 41
0
 10
158846.26794112
 20
222451.912659284
 40
0
 41
0
  0
LWPOLYLINE
  5
9D
100
AcDbEntity
  8
050_deur
100
AcDbPolyline
 90
4
 70
1
 10
158842.980624225
 20
222449.722480101
 40
0
 41
0
 10
158842.542402537
 20
222450.391932154
 40
0
 41
0
 10
158843.21185459
 20
222450.830153843
 40
0
 41
0
 10
158842.980624225
 20
222449.722480101
 40
0
 41
0
  0
LWPOLYLINE
  5
9E
100
AcDbEntity
  8
050_deur
100
AcDbPolyline
 90
4
 70
1
 10
158842.796398842
 20
222449.601290512
 40
0
 41
0
 10
158842.360846561
 20
222450.262569363
 40
0
 41
0
 10
158841.699567709
 20
222449.827017082
 40
0
 41
0
 10
158842.796398842
 20
222449.601290512
 40
0
 41
0
  0
LWPOLYLINE
  5
9F
100
AcDbEntity
  8
050_deur
100
AcDbPolyline
 90
4
 70
1
 10
158839.410580376
 20
222447.349861791
 40
0
 41
0
 10
158838.970026288
 20
222448.012431492
 40
0
 41
0
 10
158839.63259599
 20
222448.45298558
 40
0
 41
0
 10
158839.410580376
 20
222447.349861791
 40
0
 41
0
  0
LWPOLYLINE
  5
A0
100
AcDbEntity
  8
050_deur
100
AcDbPolyline
 90
4
 70
1
 10
158839.222119029
 20
222447.240205182
 40
0
 41
0
 10
158838.782109189
 20
222447.904962646
 40
0
 41
0
 10
158838.117351725
 20
222447.464952806
 40
0
 41
0
 10
158839.222119029
 20
222447.240205182
 40
0
 41
0
  0
LWPOLYLINE
  5
A1
100
AcDbEntity
  8
050_deur
100
AcDbPolyline
 90
4
 70
1
 10
158835.109662899
 20
222446.359203978
 40
0
 41
0
 10
158834.662326847
 20
222447.032357853
 40
0
 41
0
 10
158835.335480721
 20
222447.479693904
 40
0
 41
0
 10
158835.109662899
 20
222446.359203978
 40
0
 41
0
  0
LWPOLYLINE
  5
A2
100
AcDbEntity
  8
050_deur
100
AcDbPolyline
 90
4
 70
1
 10
158837.515326401
 20
222449.815301129
 40
0
 41
0
 10
158837.949746963
 20
222449.160445363
 40
0
 41
0
 10
158837.294891197
 20
222448.726024802
 40
0
 41
0
 10
158837.515326401
 20
222449.815301129
 40
0
 41
0
  0
LWPOLYLINE
  5
A3
100
AcDbEntity
  8
050_deur
100
AcDbPolyline
 90
4
 70
1
 10
158837.703830348
 20
222449.940281192
 40
0
 41
0
 10
158838.136699611
 20
222449.283313152
 40
0
 41
0
 10
158838.793667651
 20
222449.716182414
 40
0
 41
0
 10
158837.703830348
 20
222449.940281192
 40
0
 41
0
  0
LWPOLYLINE
  5
A4
100
AcDbEntity
  8
050_deur
100
AcDbPolyline
 90
4
 70
1
 10
158841.085372947
 20
222452.175220395
 40
0
 41
0
 10
158841.523456956
 20
222451.520174021
 40
0
 41
0
 10
158840.868410582
 20
222451.082090011
 40
0
 41
0
 10
158841.085372947
 20
222452.175220395
 40
0
 41
0
  0
LWPOLYLINE
  5
A5
100
AcDbEntity
  8
050_deur
100
AcDbPolyline
 90
4
 70
1
 10
158841.2804642
 20
222452.301823285
 40
0
 41
0
 10
158841.718165095
 20
222451.638224287
 40
0
 41
0
 10
158842.381764093
 20
222452.075925182
 40
0
 41
0
 10
158841.2804642
 20
222452.301823285
 40
0
 41
0
  0
LWPOLYLINE
  5
A6
100
AcDbEntity
  8
050_deur
100
AcDbPolyline
 90
4
 70
1
 10
158844.570757957
 20
222454.469553289
 40
0
 41
0
 10
158845.009590091
 20
222453.81561297
 40
0
 41
0
 10
158844.355649772
 20
222453.376780836
 40
0
 41
0
 10
158844.570757957
 20
222454.469553289
 40
0
 41
0
  0
LWPOLYLINE
  5
A7
100
AcDbEntity
  8
050_deur
100
AcDbPolyline
 90
4
 70
1
 10
158844.763209681
 20
222454.583648119
 40
0
 41
0
 10
158845.201202858
 20
222453.931650616
 40
0
 41
0
 10
158845.85320036
 20
222454.369643793
 40
0
 41
0
 10
158844.763209681
 20
222454.583648119
 40
0
 41
0
  0
LWPOLYLINE
  5
A8
100
AcDbEntity
  8
050_deur
100
AcDbPolyline
 90
4
 70
1
 10
158848.039960354
 20
222456.835202357
 40
0
 41
0
 10
158848.508017513
 20
222456.125476237
 40
0
 41
0
 10
158847.798291393
 20
222455.657419078
 40
0
 41
0
 10
158848.039960354
 20
222456.835202357
 40
0
 41
0
  0
LWPOLYLINE
  5
A9
100
AcDbEntity
  8
050_deur
100
AcDbPolyline
 90
4
 70
1
 10
158848.442289507
 20
222457.09696914
 40
0
 41
0
 10
158848.908081636
 20
222456.385759651
 40
0
 41
0
 10
158849.619291125
 20
222456.851551781
 40
0
 41
0
 10
158848.442289507
 20
222457.09696914
 40
0
 41
0
  0
LWPOLYLINE
  5
AA
100
AcDbEntity
  8
050_deur
100
AcDbPolyline
 90
5
 70
1
 10
158848.09507409
 20
222449.509429325
 40
0
 41
0
 10
158847.118510291
 20
222450.980910994
 40
0
 41
0
 10
158847.3024455
 20
222451.102981469
 40
0
 41
0
 10
158848.279009298
 20
222449.6314998
 40
0
 41
0
 10
158848.09507409
 20
222449.509429325
 40
0
 41
0
  0
LWPOLYLINE
  5
AB
100
AcDbEntity
  8
050_deur
100
AcDbPolyline
 90
5
 70
1
 10
158848.462944507
 20
222449.753570275
 40
0
 41
0
 10
158847.974662608
 20
222450.489311109
 40
0
 41
0
 10
158847.790727399
 20
222450.367240634
 40
0
 41
0
 10
158848.279009298
 20
222449.6314998
 40
0
 41
0
 10
158848.462944507
 20
222449.753570275
 40
0
 41
0
  0
LWPOLYLINE
  5
AC
100
AcDbEntity
  8
050_deur
100
AcDbPolyline
 90
5
 70
1
 10
158844.573803695
 20
222447.240115097
 40
0
 41
0
 10
158843.601140707
 20
222448.713146656
 40
0
 41
0
 10
158843.785269652
 20
222448.83472953
 40
0
 41
0
 10
158844.75793264
 20
222447.36169797
 40
0
 41
0
 10
158844.573803695
 20
222447.240115097
 40
0
 41
0
  0
LWPOLYLINE
  5
AD
100
AcDbEntity
  8
050_deur
100
AcDbPolyline
 90
5
 70
1
 10
158844.942061585
 20
222447.483280844
 40
0
 41
0
 10
158844.455730091
 20
222448.219796623
 40
0
 41
0
 10
158844.271601146
 20
222448.09821375
 40
0
 41
0
 10
158844.75793264
 20
222447.36169797
 40
0
 41
0
 10
158844.942061585
 20
222447.483280844
 40
0
 41
0
  0
LWPOLYLINE
  5
AE
100
AcDbEntity
  8
050_deur
100
AcDbPolyline
 90
5
 70
1
 10
158841.009514747
 20
222444.871263763
 40
0
 41
0
 10
158840.094263756
 20
222446.275058194
 40
0
 41
0
 10
158840.26973806
 20
222446.389464568
 40
0
 41
0
 10
158841.184989051
 20
222444.985670136
 40
0
 41
0
 10
158841.009514747
 20
222444.871263763
 40
0
 41
0
  0
LWPOLYLINE
  5
AF
100
AcDbEntity
  8
050_deur
100
AcDbPolyline
 90
5
 70
1
 10
158841.360463354
 20
222445.10007651
 40
0
 41
0
 10
158840.902837859
 20
222445.801973726
 40
0
 41
0
 10
158840.727363555
 20
222445.687567352
 40
0
 41
0
 10
158841.184989051
 20
222444.985670136
 40
0
 41
0
 10
158841.360463354
 20
222445.10007651
 40
0
 41
0
  0
LWPOLYLINE
  5
B0
100
AcDbEntity
  8
050_deur
100
AcDbPolyline
 90
5
 70
1
 10
158836.969329023
 20
222451.002276979
 40
0
 41
0
 10
158836.056630389
 20
222452.37894358
 40
0
 41
0
 10
158836.228713714
 20
222452.493030909
 40
0
 41
0
 10
158837.141412348
 20
222451.116364309
 40
0
 41
0
 10
158836.969329023
 20
222451.002276979
 40
0
 41
0
  0
LWPOLYLINE
  5
B1
100
AcDbEntity
  8
050_deur
100
AcDbPolyline
 90
5
 70
1
 10
158837.313495673
 20
222451.230451638
 40
0
 41
0
 10
158836.857146356
 20
222451.918784938
 40
0
 41
0
 10
158836.685063031
 20
222451.804697609
 40
0
 41
0
 10
158837.141412348
 20
222451.116364309
 40
0
 41
0
 10
158837.313495673
 20
222451.230451638
 40
0
 41
0
  0
LWPOLYLINE
  5
B2
100
AcDbEntity
  8
050_deur
100
AcDbPolyline
 90
5
 70
1
 10
158840.588461827
 20
222453.299625348
 40
0
 41
0
 10
158839.61582355
 20
222454.75240094
 40
0
 41
0
 10
158839.797420499
 20
222454.873980724
 40
0
 41
0
 10
158840.770058776
 20
222453.421205132
 40
0
 41
0
 10
158840.588461827
 20
222453.299625348
 40
0
 41
0
  0
LWPOLYLINE
  5
B3
100
AcDbEntity
  8
050_deur
100
AcDbPolyline
 90
5
 70
1
 10
158840.951655725
 20
222453.542784917
 40
0
 41
0
 10
158840.465336586
 20
222454.269172713
 40
0
 41
0
 10
158840.283739637
 20
222454.147592928
 40
0
 41
0
 10
158840.770058776
 20
222453.421205132
 40
0
 41
0
 10
158840.951655725
 20
222453.542784917
 40
0
 41
0
  0
LWPOLYLINE
  5
B4
100
AcDbEntity
  8
050_deur
100
AcDbPolyline
 90
5
 70
1
 10
158844.068511786
 20
222455.596695678
 40
0
 41
0
 10
158843.100013747
 20
222457.064021975
 40
0
 41
0
 10
158843.283429534
 20
222457.18508423
 40
0
 41
0
 10
158844.251927574
 20
222455.717757933
 40
0
 41
0
 10
158844.068511786
 20
222455.596695678
 40
0
 41
0
  0
LWPOLYLINE
  5
B5
100
AcDbEntity
  8
050_deur
100
AcDbPolyline
 90
5
 70
1
 10
158844.435343361
 20
222455.838820188
 40
0
 41
0
 10
158843.951094341
 20
222456.572483336
 40
0
 41
0
 10
158843.767678554
 20
222456.451421081
 40
0
 41
0
 10
158844.251927574
 20
222455.717757933
 40
0
 41
0
 10
158844.435343361
 20
222455.838820188
 40
0
 41
0
  0
LWPOLYLINE
  5
B6
100
AcDbEntity
  8
050_deur
100
AcDbPolyline
 90
4
 70
1
 10
158833.053514912
 20
222445.665629295
 40
0
 41
0
 10
158833.986006614
 20
222446.28452613
 40
0
 41
0
 10
158834.604903449
 20
222445.352034428
 40
0
 41
0
 10
158833.053514912
 20
222445.665629295
 40
0
 41
0
  0
LWPOLYLINE
  5
B8
100
AcDbEntity
  8
060_raam
100
AcDbPolyline
 90
5
 70
1
 10
158836.95676108
 20
222446.808133317
 40
0
 41
0
 10
158836.931022008
 20
222446.846955768
 40
0
 41
0
 10
158834.746239683
 20
222445.39845707
 40
0
 41
0
 10
158834.771978755
 20
222445.359634619
 40
0
 41
0
 10
158836.95676108
 20
222446.808133317
 40
0
 41
0
  0
LWPOLYLINE
  5
B9
100
AcDbEntity
  8
060_raam
100
AcDbPolyline
 90
5
 70
1
 10
158833.146871103
 20
222450.744485469
 40
0
 41
0
 10
158833.122406798
 20
222450.781767095
 40
0
 41
0
 10
158830.836654477
 20
222449.281850149
 40
0
 41
0
 10
158830.867866679
 20
222449.248996511
 40
0
 41
0
 10
158833.146871103
 20
222450.744485469
 40
0
 41
0
  0
LWPOLYLINE
  5
BA
100
AcDbEntity
  8
060_raam
100
AcDbPolyline
 90
5
 70
1
 10
158835.888403885
 20
222452.511701022
 40
0
 41
0
 10
158835.861997634
 20
222452.551655268
 40
0
 41
0
 10
158834.122801636
 20
222451.402199322
 40
0
 41
0
 10
158834.149207887
 20
222451.362245075
 40
0
 41
0
 10
158835.888403885
 20
222452.511701022
 40
0
 41
0
  0
LWPOLYLINE
  5
BB
100
AcDbEntity
  8
060_raam
100
AcDbPolyline
 90
5
 70
1
 10
158835.94132101
 20
222452.557127236
 40
0
 41
0
 10
158835.912421838
 20
222452.600660497
 40
0
 41
0
 10
158837.66379672
 20
222453.763295279
 40
0
 41
0
 10
158837.692695893
 20
222453.719762017
 40
0
 41
0
 10
158835.94132101
 20
222452.557127236
 40
0
 41
0
  0
LWPOLYLINE
  5
BC
100
AcDbEntity
  8
060_raam
100
AcDbPolyline
 90
5
 70
1
 10
158837.776818028
 20
222453.786035068
 40
0
 41
0
 10
158837.74690077
 20
222453.831186529
 40
0
 41
0
 10
158839.42901716
 20
222454.945753123
 40
0
 41
0
 10
158839.458934418
 20
222454.900601662
 40
0
 41
0
 10
158837.776818028
 20
222453.786035068
 40
0
 41
0
  0
LWPOLYLINE
  5
BD
100
AcDbEntity
  8
060_raam
100
AcDbPolyline
 90
5
 70
1
 10
158839.517143023
 20
222454.943023806
 40
0
 41
0
 10
158839.489553797
 20
222454.985149291
 40
0
 41
0
 10
158841.147492531
 20
222456.070982405
 40
0
 41
0
 10
158841.175081757
 20
222456.02885692
 40
0
 41
0
 10
158839.517143023
 20
222454.943023806
 40
0
 41
0
  0
LWPOLYLINE
  5
BE
100
AcDbEntity
  8
060_raam
100
AcDbPolyline
 90
5
 70
1
 10
158841.267759519
 20
222456.087318533
 40
0
 41
0
 10
158841.238809845
 20
222456.130693623
 40
0
 41
0
 10
158842.904060784
 20
222457.24212581
 40
0
 41
0
 10
158842.933010458
 20
222457.19875072
 40
0
 41
0
 10
158841.267759519
 20
222456.087318533
 40
0
 41
0
  0
LWPOLYLINE
  5
BF
100
AcDbEntity
  8
060_raam
100
AcDbPolyline
 90
5
 70
1
 10
158843.005941208
 20
222457.229346898
 40
0
 41
0
 10
158842.97466379
 20
222457.276423654
 40
0
 41
0
 10
158844.624094998
 20
222458.372292508
 40
0
 41
0
 10
158844.655372417
 20
222458.325215753
 40
0
 41
0
 10
158843.005941208
 20
222457.229346898
 40
0
 41
0
  0
LWPOLYLINE
  5
C0
100
AcDbEntity
  8
060_raam
100
AcDbPolyline
 90
5
 70
1
 10
158844.768233056
 20
222458.396572828
 40
0
 41
0
 10
158844.739829289
 20
222458.439397771
 40
0
 41
0
 10
158846.444523498
 20
222459.570041129
 40
0
 41
0
 10
158846.472927265
 20
222459.527216186
 40
0
 41
0
 10
158844.768233056
 20
222458.396572828
 40
0
 41
0
  0
LWPOLYLINE
  5
C1
100
AcDbEntity
  8
060_raam
100
AcDbPolyline
 90
5
 70
1
 10
158846.558256991
 20
222459.603193206
 40
0
 41
0
 10
158846.540561656
 20
222459.630315405
 40
0
 41
0
 10
158848.260650314
 20
222460.752552736
 40
0
 41
0
 10
158848.278345648
 20
222460.725430538
 40
0
 41
0
 10
158846.558256991
 20
222459.603193206
 40
0
 41
0
  0
LWPOLYLINE
  5
C2
100
AcDbEntity
  8
060_raam
100
AcDbPolyline
 90
5
 70
1
 10
158853.538004294
 20
222452.873180023
 40
0
 41
0
 10
158853.557930475
 20
222452.845948402
 40
0
 41
0
 10
158851.806402862
 20
222451.695267769
 40
0
 41
0
 10
158851.786476682
 20
222451.72249939
 40
0
 41
0
 10
158853.538004294
 20
222452.873180023
 40
0
 41
0
  0
LWPOLYLINE
  5
C3
100
AcDbEntity
  8
060_raam
100
AcDbPolyline
 90
5
 70
1
 10
158851.615767306
 20
222451.601159658
 40
0
 41
0
 10
158851.630434686
 20
222451.578707518
 40
0
 41
0
 10
158850.018711099
 20
222450.525811787
 40
0
 41
0
 10
158850.004043718
 20
222450.548263928
 40
0
 41
0
 10
158851.615767306
 20
222451.601159658
 40
0
 41
0
  0
LWPOLYLINE
  5
C4
100
AcDbEntity
  8
060_raam
100
AcDbPolyline
 90
5
 70
1
 10
158848.255694444
 20
222449.376118581
 40
0
 41
0
 10
158848.266943114
 20
222449.359165287
 40
0
 41
0
 10
158849.822748391
 20
222450.391456766
 40
0
 41
0
 10
158849.811499721
 20
222450.408410059
 40
0
 41
0
 10
158848.255694444
 20
222449.376118581
 40
0
 41
0
  0
LWPOLYLINE
  5
C5
100
AcDbEntity
  8
060_raam
100
AcDbPolyline
 90
5
 70
1
 10
158848.109091336
 20
222449.26970883
 40
0
 41
0
 10
158848.117195585
 20
222449.257361186
 40
0
 41
0
 10
158846.552515906
 20
222448.230399807
 40
0
 41
0
 10
158846.544411657
 20
222448.242747452
 40
0
 41
0
 10
158848.109091336
 20
222449.26970883
 40
0
 41
0
  0
LWPOLYLINE
  5
C6
100
AcDbEntity
  8
060_raam
100
AcDbPolyline
 90
5
 70
1
 10
158846.321428277
 20
222448.103448152
 40
0
 41
0
 10
158846.333611124
 20
222448.084701855
 40
0
 41
0
 10
158844.752715091
 20
222447.046958278
 40
0
 41
0
 10
158844.740532245
 20
222447.065704575
 40
0
 41
0
 10
158846.321428277
 20
222448.103448152
 40
0
 41
0
  0
LWPOLYLINE
  5
C7
100
AcDbEntity
  8
060_raam
100
AcDbPolyline
 90
5
 70
1
 10
158844.612214379
 20
222446.976736639
 40
0
 41
0
 10
158844.621259457
 20
222446.962803451
 40
0
 41
0
 10
158843.048635548
 20
222445.94189529
 40
0
 41
0
 10
158843.039590471
 20
222445.955828478
 40
0
 41
0
 10
158844.612214379
 20
222446.976736639
 40
0
 41
0
  0
LWPOLYLINE
  5
C8
100
AcDbEntity
  8
060_raam
100
AcDbPolyline
 90
5
 70
1
 10
158842.830440876
 20
222445.818894349
 40
0
 41
0
 10
158842.844578937
 20
222445.79726452
 40
0
 41
0
 10
158841.137366014
 20
222444.68136666
 40
0
 41
0
 10
158841.123227953
 20
222444.702996489
 40
0
 41
0
 10
158842.830440876
 20
222445.818894349
 40
0
 41
0
  0
LWPOLYLINE
  5
C9
100
AcDbEntity
  8
060_raam
100
AcDbPolyline
 90
5
 70
1
 10
158841.073993961
 20
222444.655880705
 40
0
 41
0
 10
158841.086251961
 20
222444.637211697
 40
0
 41
0
 10
158839.48444894
 20
222443.585473804
 40
0
 41
0
 10
158839.47219094
 20
222443.604142812
 40
0
 41
0
 10
158841.073993961
 20
222444.655880705
 40
0
 41
0
  0
LWPOLYLINE
  5
CA
100
AcDbEntity
  8
060_raam
100
AcDbPolyline
 90
5
 70
1
 10
158852.422832225
 20
222458.655892149
 40
0
 41
0
 10
158852.435698335
 20
222458.636962701
 40
0
 41
0
 10
158850.836907482
 20
222457.550284543
 40
0
 41
0
 10
158850.824041373
 20
222457.569213992
 40
0
 41
0
 10
158852.422832225
 20
222458.655892149
 40
0
 41
0
  0
LWPOLYLINE
  5
CB
100
AcDbEntity
  8
060_raam
100
AcDbPolyline
 90
5
 70
1
 10
158853.201318465
 20
222457.514680235
 40
0
 41
0
 10
158853.188896221
 20
222457.533237851
 40
0
 41
0
 10
158851.557733158
 20
222456.441357016
 40
0
 41
0
 10
158851.570155401
 20
222456.422799401
 40
0
 41
0
 10
158853.201318465
 20
222457.514680235
 40
0
 41
0
  0
LWPOLYLINE
  5
CD
100
AcDbEntity
  8
070_trap
100
AcDbPolyline
 90
6
 70
1
 10
158852.695424803
 20
222453.963174955
 40
0
 41
0
 10
158852.339737102
 20
222453.728163786
 40
0
 41
0
 10
158851.921408302
 20
222453.451764182
 40
0
 41
0
 10
158851.027270614
 20
222454.805035098
 40
0
 41
0
 10
158851.801287116
 20
222455.31644587
 40
0
 41
0
 10
158852.695424803
 20
222453.963174955
 40
0
 41
0
  0
LWPOLYLINE
  5
CE
100
AcDbEntity
  8
070_trap
100
AcDbPolyline
 90
6
 70
1
 10
158851.129071589
 20
222452.715082313
 40
0
 41
0
 10
158851.871415127
 20
222453.202963954
 40
0
 41
0
 10
158850.761826087
 20
222454.891275596
 40
0
 41
0
 10
158850.364217004
 20
222454.629959694
 40
0
 41
0
 10
158850.019482549
 20
222454.403393956
 40
0
 41
0
 10
158851.129071589
 20
222452.715082313
 40
0
 41
0
  0
LWPOLYLINE
  5
CF
100
AcDbEntity
  8
070_trap
100
AcDbPolyline
 90
5
 70
1
 10
158830.338276786
 20
222444.002050168
 40
0
 41
0
 10
158831.122546492
 20
222444.517427403
 40
0
 41
0
 10
158830.23250842
 20
222445.871833165
 40
0
 41
0
 10
158829.445800775
 20
222445.354853855
 40
0
 41
0
 10
158830.338276786
 20
222444.002050168
 40
0
 41
0
  0
LWPOLYLINE
  5
D0
100
AcDbEntity
  8
070_trap
100
AcDbPolyline
 90
5
 70
1
 10
158830.332141818
 20
222445.93730654
 40
0
 41
0
 10
158831.119805434
 20
222446.454874859
 40
0
 41
0
 10
158832.011894325
 20
222445.101822064
 40
0
 41
0
 10
158831.22217989
 20
222444.582900779
 40
0
 41
0
 10
158830.332141818
 20
222445.93730654
 40
0
 41
0
  0
LWPOLYLINE
  5
D1
100
AcDbEntity
  8
070_trap
100
AcDbPolyline
 90
4
 70
1
 10
158851.801287116
 20
222455.31644587
 40
0
 41
0
 10
158852.339737102
 20
222453.728163786
 40
0
 41
0
 10
158851.027270614
 20
222454.805035098
 40
0
 41
0
 10
158851.801287116
 20
222455.31644587
 40
0
 41
0
  0
LWPOLYLINE
  5
D2
100
AcDbEntity
  8
070_trap
100
AcDbPolyline
 90
4
 70
1
 10
158851.871415127
 20
222453.202963954
 40
0
 41
0
 10
158850.364217004
 20
222454.629959694
 40
0
 41
0
 10
158851.129071589
 20
222452.715082313
 40
0
 41
0
 10
158851.871415127
 20
222453.202963954
 40
0
 41
0
  0
LWPOLYLINE
  5
D3
100
AcDbEntity
  8
070_trap
100
AcDbPolyline
 90
4
 70
1
 10
158830.338276786
 20
222444.002050168
 40
0
 41
0
 10
158831.122546492
 20
222444.517427403
 40
0
 41
0
 10
158829.815645326
 20
222445.59789456
 40
0
 41
0
 10
158830.338276786
 20
222444.002050168
 40
0
 41
0
  0
LWPOLYLINE
  5
D4
100
AcDbEntity
  8
070_trap
100
AcDbPolyline
 90
4
 70
1
 10
158830.332141818
 20
222445.93730654
 40
0
 41
0
 10
158831.119805434
 20
222446.454874859
 40
0
 41
0
 10
158831.631754131
 20
222444.852031976
 40
0
 41
0
 10
158830.332141818
 20
222445.93730654
 40
0
 41
0
  0
LWPOLYLINE
  5
D6
100
AcDbEntity
  8
091_bruto vloeroppervlakte-GFA
100
AcDbPolyline
 90
87
 70
1
 10
158851.570260458
 20
222456.377927553
 40
0
 41
0
 10
158854.019946411
 20
222452.64447134
 40
0
 41
0
 10
158853.885454893
 20
222452.556388855
 40
0
 41
0
 10
158853.677438863
 20
222452.887281664
 40
0
 41
0
 10
158851.808836609
 20
222451.667800892
 40
0
 41
0
 10
158852.031341046
 20
222451.333927281
 40
0
 41
0
 10
158851.898072451
 20
222451.252568062
 40
0
 41
0
 10
158851.685137481
 20
222451.595779937
 40
0
 41
0
 10
158850.005598404
 20
222450.492750119
 40
0
 41
0
 10
158850.230581977
 20
222450.149226822
 40
0
 41
0
 10
158850.097686097
 20
222450.062189378
 40
0
 41
0
 10
158849.882574305
 20
222450.406515148
 40
0
 41
0
 10
158846.518506534
 20
222448.189719781
 40
0
 41
0
 10
158846.746533185
 20
222447.853634667
 40
0
 41
0
 10
158846.614010193
 20
222447.764149468
 40
0
 41
0
 10
158846.386987113
 20
222448.110786855
 40
0
 41
0
 10
158843.028595649
 20
222445.903095823
 40
0
 41
0
 10
158843.246727496
 20
222445.56629765
 40
0
 41
0
 10
158843.113672614
 20
222445.474261597
 40
0
 41
0
 10
158842.900147997
 20
222445.81897166
 40
0
 41
0
 10
158839.348996215
 20
222443.470675793
 40
0
 41
0
 10
158839.573447943
 20
222443.142911162
 40
0
 41
0
 10
158839.438089445
 20
222443.046919163
 40
0
 41
0
 10
158837.055069082
 20
222446.664809283
 40
0
 41
0
 10
158836.672332294
 20
222446.412315827
 40
0
 41
0
 10
158836.793521226
 20
222446.218406308
 40
0
 41
0
 10
158836.668781444
 20
222446.142176434
 40
0
 41
0
 10
158836.547193348
 20
222446.329761013
 40
0
 41
0
 10
158834.745049089
 20
222445.140877038
 40
0
 41
0
 10
158834.604903452
 20
222445.352034427
 40
0
 41
0
 10
158833.986006618
 20
222446.284526136
 40
0
 41
0
 10
158833.93411886
 20
222446.362705398
 40
0
 41
0
 10
158832.020299822
 20
222445.089073248
 40
0
 41
0
 10
158832.01189433
 20
222445.101822063
 40
0
 41
0
 10
158830.338276796
 20
222444.002050176
 40
0
 41
0
 10
158829.445800781
 20
222445.354853854
 40
0
 41
0
 10
158831.119805433
 20
222446.454874862
 40
0
 41
0
 10
158829.492255479
 20
222448.923419241
 40
0
 41
0
 10
158829.621193767
 20
222449.017555811
 40
0
 41
0
 10
158829.844762139
 20
222448.676193342
 40
0
 41
0
 10
158832.632541135
 20
222450.530083329
 40
0
 41
0
 10
158833.151829824
 20
222450.875413455
 40
0
 41
0
 10
158833.942092709
 20
222451.400943082
 40
0
 41
0
 10
158833.732919693
 20
222451.707662065
 40
0
 41
0
 10
158833.859109677
 20
222451.8013395
 40
0
 41
0
 10
158834.081586793
 20
222451.461643241
 40
0
 41
0
 10
158835.345183626
 20
222452.29506211
 40
0
 41
0
 10
158835.828063004
 20
222452.613550387
 40
0
 41
0
 10
158835.884555198
 20
222452.650810432
 40
0
 41
0
 10
158836.31651897
 20
222452.935716763
 40
0
 41
0
 10
158837.639824674
 20
222453.808517262
 40
0
 41
0
 10
158837.405405901
 20
222454.139543131
 40
0
 41
0
 10
158837.544520132
 20
222454.236526538
 40
0
 41
0
 10
158837.766535558
 20
222453.888567288
 40
0
 41
0
 10
158838.959016226
 20
222454.681041166
 40
0
 41
0
 10
158839.402022317
 20
222454.975444906
 40
0
 41
0
 10
158839.455100209
 20
222455.010718305
 40
0
 41
0
 10
158839.899776131
 20
222455.306231741
 40
0
 41
0
 10
158841.107723981
 20
222456.108984489
 40
0
 41
0
 10
158840.887272157
 20
222456.433652002
 40
0
 41
0
 10
158841.017724782
 20
222456.526906744
 40
0
 41
0
 10
158841.243454807
 20
222456.18224369
 40
0
 41
0
 10
158842.402967416
 20
222456.945519723
 40
0
 41
0
 10
158842.889852591
 20
222457.266023167
 40
0
 41
0
 10
158842.940215662
 20
222457.299175825
 40
0
 41
0
 10
158843.384203978
 20
222457.591441408
 40
0
 41
0
 10
158844.61380434
 20
222458.400854338
 40
0
 41
0
 10
158844.387034081
 20
222458.729201186
 40
0
 41
0
 10
158844.519278206
 20
222458.819720514
 40
0
 41
0
 10
158844.740481317
 20
222458.476001363
 40
0
 41
0
 10
158845.963971317
 20
222459.293601126
 40
0
 41
0
 10
158846.379304446
 20
222459.571148347
 40
0
 41
0
 10
158846.408821151
 20
222459.590872955
 40
0
 41
0
 10
158846.174482875
 20
222459.920578372
 40
0
 41
0
 10
158846.322284415
 20
222460.012648407
 40
0
 41
0
 10
158846.542250231
 20
222459.669565156
 40
0
 41
0
 10
158846.576016992
 20
222459.691747449
 40
0
 41
0
 10
158846.962033384
 20
222459.945332017
 40
0
 41
0
 10
158848.392152272
 20
222460.884815645
 40
0
 41
0
 10
158848.16113285
 20
222461.230730791
 40
0
 41
0
 10
158848.298812956
 20
222461.316668239
 40
0
 41
0
 10
158850.764123447
 20
222457.594912268
 40
0
 41
0
 10
158852.474462204
 20
222458.710655581
 40
0
 41
0
 10
158852.52205693
 20
222458.639439523
 40
0
 41
0
 10
158853.212295398
 20
222457.598206423
 40
0
 41
0
 10
158853.275975011
 20
222457.50810333
 40
0
 41
0
 10
158851.570260458
 20
222456.377927553
 40
0
 41
0
  0
LWPOLYLINE
  5
D7
100
AcDbEntity
  8
091_bruto vloeroppervlakte-GFA
100
AcDbPolyline
 90
5
 70
1
 10
158833.330926221
 20
222439.445573549
 40
0
 41
0
 10
158833.522623868
 20
222439.152110484
 40
0
 41
0
 10
158833.382992248
 20
222439.066911529
 40
0
 41
0
 10
158833.196027876
 20
222439.362741232
 40
0
 41
0
 10
158833.330926221
 20
222439.445573549
 40
0
 41
0
  0
LWPOLYLINE
  5
D8
100
AcDbEntity
  8
091_bruto vloeroppervlakte-GFA
100
AcDbPolyline
 90
5
 70
1
 10
158832.875546004
 20
222444.067209737
 40
0
 41
0
 10
158833.073927932
 20
222443.776249575
 40
0
 41
0
 10
158832.938734321
 20
222443.685140838
 40
0
 41
0
 10
158832.738882897
 20
222443.974631503
 40
0
 41
0
 10
158832.875546004
 20
222444.067209737
 40
0
 41
0
  0
LWPOLYLINE
  5
D9
100
AcDbEntity
  8
091_bruto vloeroppervlakte-GFA
100
AcDbPolyline
 90
5
 70
1
 10
158839.076540045
 20
222442.806360193
 40
0
 41
0
 10
158838.936908425
 20
222442.716427963
 40
0
 41
0
 10
158838.721544401
 20
222443.04775723
 40
0
 41
0
 10
158838.863542658
 20
222443.132956185
 40
0
 41
0
 10
158839.076540045
 20
222442.806360193
 40
0
 41
0
  0
LWPOLYLINE
  5
DA
100
AcDbEntity
  8
091_bruto vloeroppervlakte-GFA
100
AcDbPolyline
 90
5
 70
1
 10
158835.206601411
 20
222440.260155592
 40
0
 41
0
 10
158834.986101783
 20
222440.600355017
 40
0
 41
0
 10
158835.11210157
 20
222440.682254879
 40
0
 41
0
 10
158835.332601198
 20
222440.342055453
 40
0
 41
0
 10
158835.206601411
 20
222440.260155592
 40
0
 41
0
  0
LWPOLYLINE
  5
DC
100
AcDbEntity
  8
012_noordpijl
100
AcDbPolyline
 90
5
 70
1
 10
158828.697499998
 20
222431.761799999
 40
0
 41
0
 10
158829.492299996
 20
222434.940900002
 40
0
 41
0
 10
158830.287100002
 20
222431.761799999
 40
0
 41
0
 10
158829.492299996
 20
222432.556600001
 40
0
 41
0
 10
158828.697499998
 20
222431.761799999
 40
0
 41
0
  0
LINE
  5
DD
100
AcDbEntity
  8
012_noordpijl
100
AcDbLine
 10
158829.492299996
 20
222432.556600001
 30
0
 11
158829.492299996
 21
222434.940900002
 31
0
  0
LWPOLYLINE
  5
DE
100
AcDbEntity
  8
012_noordpijl
100
AcDbPolyline
 90
4
 70
0
 10
158829.0154
 20
222435.2588
 40
0
 41
0
 10
158829.0154
 20
222436.530400001
 40
0
 41
0
 10
158829.9692
 20
222435.2588
 40
0
 41
0
 10
158829.9692
 20
222436.530400001
 40
0
 41
0
  0
LINE
  5
E0
100
AcDbEntity
  8
013_schaalstok
100
AcDbLine
 10
158839.492299996
 20
222433.0469
 30
0
 11
158849.492299996
 21
222433.0469
 31
0
  0
LINE
  5
E1
100
AcDbEntity
  8
013_schaalstok
100
AcDbLine
 10
158839.492299996
 20
222433.0469
 30
0
 11
158839.492299996
 21
222433.5469
 31
0
  0
LINE
  5
E2
100
AcDbEntity
  8
013_schaalstok
100
AcDbLine
 10
158844.492299996
 20
222433.0469
 30
0
 11
158844.492299996
 21
222433.5469
 31
0
  0
LWPOLYLINE
  5
E3
100
AcDbEntity
  8
013_schaalstok
100
AcDbPolyline
 90
13
 70
1
 10
158839.347900003
 20
222435.7007
 40
0
 41
0
 10
158839.5999
 20
222435.7007
 40
0
 41
0
 10
158839.788800001
 20
222435.574700002
 40
0
 41
0
 10
158839.851800002
 20
222435.322799999
 40
0
 41
0
 10
158839.851800002
 20
222434.567000002
 40
0
 41
0
 10
158839.788800001
 20
222434.315099999
 40
0
 41
0
 10
158839.5999
 20
222434.189100001
 40
0
 41
0
 10
158839.347900003
 20
222434.189100001
 40
0
 41
0
 10
158839.159000002
 20
222434.315099999
 40
0
 41
0
 10
158839.096000001
 20
222434.567000002
 40
0
 41
0
 10
158839.096000001
 20
222435.322799999
 40
0
 41
0
 10
158839.159000002
 20
222435.574700002
 40
0
 41
0
 10
158839.347900003
 20
222435.7007
 40
0
 41
0
  0
LWPOLYLINE
  5
E4
100
AcDbEntity
  8
013_schaalstok
100
AcDbPolyline
 90
11
 70
0
 10
158844.829800002
 20
222435.7005
 40
0
 41
0
 10
158844.1369
 20
222435.7005
 40
0
 41
0
 10
158844.1369
 20
222435.574499998
 40
0
 41
0
 10
158844.1369
 20
222435.070700001
 40
0
 41
0
 10
158844.325900003
 20
222434.944699999
 40
0
 41
0
 10
158844.7038
 20
222434.944699999
 40
0
 41
0
 10
158844.829800002
 20
222434.818700001
 40
0
 41
0
 10
158844.829800002
 20
222434.3149
 40
0
 41
0
 10
158844.640799999
 20
222434.188900001
 40
0
 41
0
 10
158844.325900003
 20
222434.188900001
 40
0
 41
0
 10
158844.1369
 20
222434.3149
 40
0
 41
0
  0
LWPOLYLINE
  5
E5
100
AcDbEntity
  8
013_schaalstok
100
AcDbPolyline
 90
13
 70
1
 10
158849.851800002
 20
222435.675999999
 40
0
 41
0
 10
158850.103699997
 20
222435.675999999
 40
0
 41
0
 10
158850.2927
 20
222435.550000001
 40
0
 41
0
 10
158850.355599999
 20
222435.298099998
 40
0
 41
0
 10
158850.355599999
 20
222434.542300001
 40
0
 41
0
 10
158850.2927
 20
222434.290399998
 40
0
 41
0
 10
158850.103699997
 20
222434.1644
 40
0
 41
0
 10
158849.851800002
 20
222434.1644
 40
0
 41
0
 10
158849.662799999
 20
222434.290399998
 40
0
 41
0
 10
158849.599799998
 20
222434.542300001
 40
0
 41
0
 10
158849.599799998
 20
222435.298099998
 40
0
 41
0
 10
158849.662799999
 20
222435.550000001
 40
0
 41
0
 10
158849.851800002
 20
222435.675999999
 40
0
 41
0
  0
LWPOLYLINE
  5
E6
100
AcDbEntity
  8
013_schaalstok
100
AcDbPolyline
 90
3
 70
0
 10
158848.843999997
 20
222434.1644
 40
0
 41
0
 10
158849.033
 20
222434.1644
 40
0
 41
0
 10
158849.221900001
 20
222434.1644
 40
0
 41
0
  0
LWPOLYLINE
  5
E7
100
AcDbEntity
  8
013_schaalstok
100
AcDbPolyline
 90
3
 70
0
 10
158849.033
 20
222434.1644
 40
0
 41
0
 10
158849.033
 20
222435.675999999
 40
0
 41
0
 10
158848.731399998
 20
222435.4241
 40
0
 41
0
  0
LINE
  5
E8
100
AcDbEntity
  8
013_schaalstok
100
AcDbLine
 10
158849.492299996
 20
222433.0469
 30
0
 11
158849.492299996
 21
222433.5469
 31
0
  0
LWPOLYLINE
  5
EA
100
AcDbEntity
  8
LEVEL_AREA
100
AcDbPolyline
 90
5
 70
1
 10
158839.076540045
 20
222442.806360193
 40
0
 41
0
 10
158838.936908425
 20
222442.716427963
 40
0
 41
0
 10
158838.721544401
 20
222443.04775723
 40
0
 41
0
 10
158838.863542658
 20
222443.132956185
 40
0
 41
0
 10
158839.076540045
 20
222442.806360193
 40
0
 41
0
  0
LWPOLYLINE
  5
EB
100
AcDbEntity
  8
LEVEL_AREA
100
AcDbPolyline
 90
5
 70
1
 10
158835.206601411
 20
222440.260155592
 40
0
 41
0
 10
158834.986101783
 20
222440.600355017
 40
0
 41
0
 10
158835.11210157
 20
222440.682254879
 40
0
 41
0
 10
158835.332601198
 20
222440.342055453
 40
0
 41
0
 10
158835.206601411
 20
222440.260155592
 40
0
 41
0
  0
LWPOLYLINE
  5
EC
100
AcDbEntity
  8
LEVEL_AREA
100
AcDbPolyline
 90
87
 70
1
 10
158851.570260458
 20
222456.377927553
 40
0
 41
0
 10
158854.019946411
 20
222452.64447134
 40
0
 41
0
 10
158853.885454893
 20
222452.556388855
 40
0
 41
0
 10
158853.677438863
 20
222452.887281664
 40
0
 41
0
 10
158851.808836609
 20
222451.667800892
 40
0
 41
0
 10
158852.031341046
 20
222451.333927281
 40
0
 41
0
 10
158851.898072451
 20
222451.252568062
 40
0
 41
0
 10
158851.685137481
 20
222451.595779937
 40
0
 41
0
 10
158850.005598404
 20
222450.492750119
 40
0
 41
0
 10
158850.230581977
 20
222450.149226822
 40
0
 41
0
 10
158850.097686097
 20
222450.062189378
 40
0
 41
0
 10
158849.882574305
 20
222450.406515148
 40
0
 41
0
 10
158846.518506534
 20
222448.189719781
 40
0
 41
0
 10
158846.746533185
 20
222447.853634667
 40
0
 41
0
 10
158846.614010193
 20
222447.764149468
 40
0
 41
0
 10
158846.386987113
 20
222448.110786855
 40
0
 41
0
 10
158843.028595649
 20
222445.903095823
 40
0
 41
0
 10
158843.246727496
 20
222445.56629765
 40
0
 41
0
 10
158843.113672614
 20
222445.474261597
 40
0
 41
0
 10
158842.900147997
 20
222445.81897166
 40
0
 41
0
 10
158839.348996215
 20
222443.470675793
 40
0
 41
0
 10
158839.573447943
 20
222443.142911162
 40
0
 41
0
 10
158839.438089445
 20
222443.046919163
 40
0
 41
0
 10
158837.055069082
 20
222446.664809283
 40
0
 41
0
 10
158836.672332294
 20
222446.412315827
 40
0
 41
0
 10
158836.793521226
 20
222446.218406308
 40
0
 41
0
 10
158836.668781444
 20
222446.142176434
 40
0
 41
0
 10
158836.547193348
 20
222446.329761013
 40
0
 41
0
 10
158834.745049089
 20
222445.140877038
 40
0
 41
0
 10
158834.604903452
 20
222445.352034427
 40
0
 41
0
 10
158833.986006618
 20
222446.284526136
 40
0
 41
0
 10
158833.93411886
 20
222446.362705398
 40
0
 41
0
 10
158832.020299822
 20
222445.089073248
 40
0
 41
0
 10
158832.01189433
 20
222445.101822063
 40
0
 41
0
 10
158830.338276796
 20
222444.002050176
 40
0
 41
0
 10
158829.445800781
 20
222445.354853854
 40
0
 41
0
 10
158831.119805433
 20
222446.454874862
 40
0
 41
0
 10
158829.492255479
 20
222448.923419241
 40
0
 41
0
 10
158829.621193767
 20
222449.017555811
 40
0
 41
0
 10
158829.844762139
 20
222448.676193342
 40
0
 41
0
 10
158832.632541135
 20
222450.530083329
 40
0
 41
0
 10
158833.151829824
 20
222450.875413455
 40
0
 41
0
 10
158833.942092709
 20
222451.400943082
 40
0
 41
0
 10
158833.732919693
 20
222451.707662065
 40
0
 41
0
 10
158833.859109677
 20
222451.8013395
 40
0
 41
0
 10
158834.081586793
 20
222451.461643241
 40
0
 41
0
 10
158835.345183626
 20
222452.29506211
 40
0
 41
0
 10
158835.828063004
 20
222452.613550387
 40
0
 41
0
 10
158835.884555198
 20
222452.650810432
 40
0
 41
0
 10
158836.31651897
 20
222452.935716763
 40
0
 41
0
 10
158837.639824674
 20
222453.808517262
 40
0
 41
0
 10
158837.405405901
 20
222454.139543131
 40
0
 41
0
 10
158837.544520132
 20
222454.236526538
 40
0
 41
0
 10
158837.766535558
 20
222453.888567288
 40
0
 41
0
 10
158838.959016226
 20
222454.681041166
 40
0
 41
0
 10
158839.402022317
 20
222454.975444906
 40
0
 41
0
 10
158839.455100209
 20
222455.010718305
 40
0
 41
0
 10
158839.899776131
 20
222455.306231741
 40
0
 41
0
 10
158841.107723981
 20
222456.108984489
 40
0
 41
0
 10
158840.887272157
 20
222456.433652002
 40
0
 41
0
 10
158841.017724782
 20
222456.526906744
 40
0
 41
0
 10
158841.243454807
 20
222456.18224369
 40
0
 41
0
 10
158842.402967416
 20
222456.945519723
 40
0
 41
0
 10
158842.889852591
 20
222457.266023167
 40
0
 41
0
 10
158842.940215662
 20
222457.299175825
 40
0
 41
0
 10
158843.384203978
 20
222457.591441408
 40
0
 41
0
 10
158844.61380434
 20
222458.400854338
 40
0
 41
0
 10
158844.387034081
 20
222458.729201186
 40
0
 41
0
 10
158844.519278206
 20
222458.819720514
 40
0
 41
0
 10
158844.740481317
 20
222458.476001363
 40
0
 41
0
 10
158845.963971317
 20
222459.293601126
 40
0
 41
0
 10
158846.379304446
 20
222459.571148347
 40
0
 41
0
 10
158846.408821151
 20
222459.590872955
 40
0
 41
0
 10
158846.174482875
 20
222459.920578372
 40
0
 41
0
 10
158846.322284415
 20
222460.012648407
 40
0
 41
0
 10
158846.542250231
 20
222459.669565156
 40
0
 41
0
 10
158846.576016992
 20
222459.691747449
 40
0
 41
0
 10
158846.962033384
 20
222459.945332017
 40
0
 41
0
 10
158848.392152272
 20
222460.884815645
 40
0
 41
0
 10
158848.16113285
 20
222461.230730791
 40
0
 41
0
 10
158848.298812956
 20
222461.316668239
 40
0
 41
0
 10
158850.764123447
 20
222457.594912268
 40
0
 41
0
 10
158852.474462204
 20
222458.710655581
 40
0
 41
0
 10
158852.52205693
 20
222458.639439523
 40
0
 41
0
 10
158853.212295398
 20
222457.598206423
 40
0
 41
0
 10
158853.275975011
 20
222457.50810333
 40
0
 41
0
 10
158851.570260458
 20
222456.377927553
 40
0
 41
0
  0
LWPOLYLINE
  5
ED
100
AcDbEntity
  8
LEVEL_AREA
100
AcDbPolyline
 90
5
 70
1
 10
158833.330926221
 20
222439.445573549
 40
0
 41
0
 10
158833.522623868
 20
222439.152110484
 40
0
 41
0
 10
158833.382992248
 20
222439.066911529
 40
0
 41
0
 10
158833.196027876
 20
222439.362741232
 40
0
 41
0
 10
158833.330926221
 20
222439.445573549
 40
0
 41
0
  0
LWPOLYLINE
  5
EE
100
AcDbEntity
  8
LEVEL_AREA
100
AcDbPolyline
 90
5
 70
1
 10
158832.875546004
 20
222444.067209737
 40
0
 41
0
 10
158833.073927932
 20
222443.776249575
 40
0
 41
0
 10
158832.938734321
 20
222443.685140838
 40
0
 41
0
 10
158832.738882897
 20
222443.974631503
 40
0
 41
0
 10
158832.875546004
 20
222444.067209737
 40
0
 41
0
  0
LWPOLYLINE
  5
F0
100
AcDbEntity
  8
GROSS_FLOOR_AREA
100
AcDbPolyline
 90
87
 70
1
 10
158851.570260458
 20
222456.377927553
 40
0
 41
0
 10
158854.019946411
 20
222452.64447134
 40
0
 41
0
 10
158853.885454893
 20
222452.556388855
 40
0
 41
0
 10
158853.677438863
 20
222452.887281664
 40
0
 41
0
 10
158851.808836609
 20
222451.667800892
 40
0
 41
0
 10
158852.031341046
 20
222451.333927281
 40
0
 41
0
 10
158851.898072451
 20
222451.252568062
 40
0
 41
0
 10
158851.685137481
 20
222451.595779937
 40
0
 41
0
 10
158850.005598404
 20
222450.492750119
 40
0
 41
0
 10
158850.230581977
 20
222450.149226822
 40
0
 41
0
 10
158850.097686097
 20
222450.062189378
 40
0
 41
0
 10
158849.882574305
 20
222450.406515148
 40
0
 41
0
 10
158846.518506534
 20
222448.189719781
 40
0
 41
0
 10
158846.746533185
 20
222447.853634667
 40
0
 41
0
 10
158846.614010193
 20
222447.764149468
 40
0
 41
0
 10
158846.386987113
 20
222448.110786855
 40
0
 41
0
 10
158843.028595649
 20
222445.903095823
 40
0
 41
0
 10
158843.246727496
 20
222445.56629765
 40
0
 41
0
 10
158843.113672614
 20
222445.474261597
 40
0
 41
0
 10
158842.900147997
 20
222445.81897166
 40
0
 41
0
 10
158839.348996215
 20
222443.470675793
 40
0
 41
0
 10
158839.573447943
 20
222443.142911162
 40
0
 41
0
 10
158839.438089445
 20
222443.046919163
 40
0
 41
0
 10
158837.055069082
 20
222446.664809283
 40
0
 41
0
 10
158836.672332294
 20
222446.412315827
 40
0
 41
0
 10
158836.793521226
 20
222446.218406308
 40
0
 41
0
 10
158836.668781444
 20
222446.142176434
 40
0
 41
0
 10
158836.547193348
 20
222446.329761013
 40
0
 41
0
 10
158834.745049089
 20
222445.140877038
 40
0
 41
0
 10
158834.604903452
 20
222445.352034427
 40
0
 41
0
 10
158833.986006618
 20
222446.284526136
 40
0
 41
0
 10
158833.93411886
 20
222446.362705398
 40
0
 41
0
 10
158832.020299822
 20
222445.089073248
 40
0
 41
0
 10
158832.01189433
 20
222445.101822063
 40
0
 41
0
 10
158830.338276796
 20
222444.002050176
 40
0
 41
0
 10
158829.445800781
 20
222445.354853854
 40
0
 41
0
 10
158831.119805433
 20
222446.454874862
 40
0
 41
0
 10
158829.492255479
 20
222448.923419241
 40
0
 41
0
 10
158829.621193767
 20
222449.017555811
 40
0
 41
0
 10
158829.844762139
 20
222448.676193342
 40
0
 41
0
 10
158832.632541135
 20
222450.530083329
 40
0
 41
0
 10
158833.151829824
 20
222450.875413455
 40
0
 41
0
 10
158833.942092709
 20
222451.400943082
 40
0
 41
0
 10
158833.732919693
 20
222451.707662065
 40
0
 41
0
 10
158833.859109677
 20
222451.8013395
 40
0
 41
0
 10
158834.081586793
 20
222451.461643241
 40
0
 41
0
 10
158835.345183626
 20
222452.29506211
 40
0
 41
0
 10
158835.828063004
 20
222452.613550387
 40
0
 41
0
 10
158835.884555198
 20
222452.650810432
 40
0
 41
0
 10
158836.31651897
 20
222452.935716763
 40
0
 41
0
 10
158837.639824674
 20
222453.808517262
 40
0
 41
0
 10
158837.405405901
 20
222454.139543131
 40
0
 41
0
 10
158837.544520132
 20
222454.236526538
 40
0
 41
0
 10
158837.766535558
 20
222453.888567288
 40
0
 41
0
 10
158838.959016226
 20
222454.681041166
 40
0
 41
0
 10
158839.402022317
 20
222454.975444906
 40
0
 41
0
 10
158839.455100209
 20
222455.010718305
 40
0
 41
0
 10
158839.899776131
 20
222455.306231741
 40
0
 41
0
 10
158841.107723981
 20
222456.108984489
 40
0
 41
0
 10
158840.887272157
 20
222456.433652002
 40
0
 41
0
 10
158841.017724782
 20
222456.526906744
 40
0
 41
0
 10
158841.243454807
 20
222456.18224369
 40
0
 41
0
 10
158842.402967416
 20
222456.945519723
 40
0
 41
0
 10
158842.889852591
 20
222457.266023167
 40
0
 41
0
 10
158842.940215662
 20
222457.299175825
 40
0
 41
0
 10
158843.384203978
 20
222457.591441408
 40
0
 41
0
 10
158844.61380434
 20
222458.400854338
 40
0
 41
0
 10
158844.387034081
 20
222458.729201186
 40
0
 41
0
 10
158844.519278206
 20
222458.819720514
 40
0
 41
0
 10
158844.740481317
 20
222458.476001363
 40
0
 41
0
 10
158845.963971317
 20
222459.293601126
 40
0
 41
0
 10
158846.379304446
 20
222459.571148347
 40
0
 41
0
 10
158846.408821151
 20
222459.590872955
 40
0
 41
0
 10
158846.174482875
 20
222459.920578372
 40
0
 41
0
 10
158846.322284415
 20
222460.012648407
 40
0
 41
0
 10
158846.542250231
 20
222459.669565156
 40
0
 41
0
 10
158846.576016992
 20
222459.691747449
 40
0
 41
0
 10
158846.962033384
 20
222459.945332017
 40
0
 41
0
 10
158848.392152272
 20
222460.884815645
 40
0
 41
0
 10
158848.16113285
 20
222461.230730791
 40
0
 41
0
 10
158848.298812956
 20
222461.316668239
 40
0
 41
0
 10
158850.764123447
 20
222457.594912268
 40
0
 41
0
 10
158852.474462204
 20
222458.710655581
 40
0
 41
0
 10
158852.52205693
 20
222458.639439523
 40
0
 41
0
 10
158853.212295398
 20
222457.598206423
 40
0
 41
0
 10
158853.275975011
 20
222457.50810333
 40
0
 41
0
 10
158851.570260458
 20
222456.377927553
 40
0
 41
0
  0
LWPOLYLINE
  5
F1
100
AcDbEntity
  8
GROSS_FLOOR_AREA
100
AcDbPolyline
 90
5
 70
1
 10
158835.206601411
 20
222440.260155592
 40
0
 41
0
 10
158834.986101783
 20
222440.600355017
 40
0
 41
0
 10
158835.11210157
 20
222440.682254879
 40
0
 41
0
 10
158835.332601198
 20
222440.342055453
 40
0
 41
0
 10
158835.206601411
 20
222440.260155592
 40
0
 41
0
  0
LWPOLYLINE
  5
F2
100
AcDbEntity
  8
GROSS_FLOOR_AREA
100
AcDbPolyline
 90
5
 70
1
 10
158833.330926221
 20
222439.445573549
 40
0
 41
0
 10
158833.522623868
 20
222439.152110484
 40
0
 41
0
 10
158833.382992248
 20
222439.066911529
 40
0
 41
0
 10
158833.196027876
 20
222439.362741232
 40
0
 41
0
 10
158833.330926221
 20
222439.445573549
 40
0
 41
0
  0
LWPOLYLINE
  5
F3
100
AcDbEntity
  8
GROSS_FLOOR_AREA
100
AcDbPolyline
 90
5
 70
1
 10
158832.875546004
 20
222444.067209737
 40
0
 41
0
 10
158833.073927932
 20
222443.776249575
 40
0
 41
0
 10
158832.938734321
 20
222443.685140838
 40
0
 41
0
 10
158832.738882897
 20
222443.974631503
 40
0
 41
0
 10
158832.875546004
 20
222444.067209737
 40
0
 41
0
  0
LWPOLYLINE
  5
F4
100
AcDbEntity
  8
GROSS_FLOOR_AREA
100
AcDbPolyline
 90
5
 70
1
 10
158839.076540045
 20
222442.806360193
 40
0
 41
0
 10
158838.936908425
 20
222442.716427963
 40
0
 41
0
 10
158838.721544401
 20
222443.04775723
 40
0
 41
0
 10
158838.863542658
 20
222443.132956185
 40
0
 41
0
 10
158839.076540045
 20
222442.806360193
 40
0
 41
0
  0
LWPOLYLINE
  5
FB
100
AcDbEntity
  8
LOCATION
100
AcDbPolyline
 90
13
 70
1
 10
158843.477485275
 20
222452.787481188
 40
0
 41
0
 10
158841.388177179
 20
222455.95778045
 40
0
 41
0
 10
158843.033933591
 20
222457.062172274
 40
0
 41
0
 10
158843.052712714
 20
222457.033278888
 40
0
 41
0
 10
158843.100013747
 20
222457.064021975
 40
0
 41
0
 10
158844.068511786
 20
222455.596695678
 40
0
 41
0
 10
158844.010794676
 20
222455.55918271
 40
0
 41
0
 10
158844.007444074
 20
222455.564337915
 40
0
 41
0
 10
158843.935747252
 20
222455.512965768
 40
0
 41
0
 10
158845.051690295
 20
222453.843864665
 40
0
 41
0
 10
158845.009590091
 20
222453.81561297
 40
0
 41
0
 10
158844.355649772
 20
222453.376780836
 40
0
 41
0
 10
158843.477485275
 20
222452.787481188
 40
0
 41
0
  0
LWPOLYLINE
  5
FC
100
AcDbEntity
  8
LOCATION
100
AcDbPolyline
 90
87
 70
1
 10
158853.373460388
 20
222452.936973007
 40
0
 41
0
 10
158851.69817392
 20
222451.849156231
 40
0
 41
0
 10
158851.129071589
 20
222452.715082313
 40
0
 41
0
 10
158850.019482549
 20
222454.403393956
 40
0
 41
0
 10
158849.510302822
 20
222455.178143912
 40
0
 41
0
 10
158849.239280417
 20
222454.999279202
 40
0
 41
0
 10
158849.33314266
 20
222454.857055669
 40
0
 41
0
 10
158848.63333076
 20
222454.398728156
 40
0
 41
0
 10
158848.541087825
 20
222454.538498054
 40
0
 41
0
 10
158846.590560837
 20
222453.251222774
 40
0
 41
0
 10
158846.679468368
 20
222453.116506803
 40
0
 41
0
 10
158846.023023681
 20
222452.685561095
 40
0
 41
0
 10
158845.935165881
 20
222452.818686474
 40
0
 41
0
 10
158845.748917058
 20
222452.695769177
 40
0
 41
0
 10
158845.836749062
 20
222452.562682884
 40
0
 41
0
 10
158845.186725462
 20
222452.131490826
 40
0
 41
0
 10
158845.097881756
 20
222452.266110087
 40
0
 41
0
 10
158843.123932342
 20
222450.963376876
 40
0
 41
0
 10
158843.21185459
 20
222450.830153843
 40
0
 41
0
 10
158842.542402537
 20
222450.391932154
 40
0
 41
0
 10
158842.456131527
 20
222450.52265317
 40
0
 41
0
 10
158842.270188553
 20
222450.399937722
 40
0
 41
0
 10
158842.360846561
 20
222450.262569363
 40
0
 41
0
 10
158841.699567709
 20
222449.827017082
 40
0
 41
0
 10
158841.609308363
 20
222449.963781372
 40
0
 41
0
 10
158839.537782106
 20
222448.596651073
 40
0
 41
0
 10
158839.63259599
 20
222448.45298558
 40
0
 41
0
 10
158838.970026288
 20
222448.012431492
 40
0
 41
0
 10
158838.873703246
 20
222448.15838372
 40
0
 41
0
 10
158838.693394391
 20
222448.03938658
 40
0
 41
0
 10
158838.782109189
 20
222447.904962646
 40
0
 41
0
 10
158838.117351725
 20
222447.464952806
 40
0
 41
0
 10
158838.028041748
 20
222447.600278578
 40
0
 41
0
 10
158834.65205566
 20
222445.380728909
 40
0
 41
0
 10
158834.650763154
 20
222445.38266409
 40
0
 41
0
 10
158834.604903449
 20
222445.352034428
 40
0
 41
0
 10
158833.986006614
 20
222446.28452613
 40
0
 41
0
 10
158834.029159936
 20
222446.313348201
 40
0
 41
0
 10
158834.003160401
 20
222446.352275533
 40
0
 41
0
 10
158834.750952862
 20
222446.838386334
 40
0
 41
0
 10
158834.629373726
 20
222447.010459265
 40
0
 41
0
 10
158834.662326847
 20
222447.032357853
 40
0
 41
0
 10
158835.335480721
 20
222447.479693904
 40
0
 41
0
 10
158835.370425681
 20
222447.502916144
 40
0
 41
0
 10
158835.492849484
 20
222447.314986404
 40
0
 41
0
 10
158835.624666869
 20
222447.403020623
 40
0
 41
0
 10
158835.43052096
 20
222447.669578668
 40
0
 41
0
 10
158836.100699131
 20
222448.108498174
 40
0
 41
0
 10
158836.282737504
 20
222447.842512987
 40
0
 41
0
 10
158837.390156663
 20
222448.582102688
 40
0
 41
0
 10
158837.294891197
 20
222448.726024802
 40
0
 41
0
 10
158837.949746963
 20
222449.160445363
 40
0
 41
0
 10
158838.049840752
 20
222449.009310444
 40
0
 41
0
 10
158838.236388089
 20
222449.132790557
 40
0
 41
0
 10
158838.136699611
 20
222449.283313152
 40
0
 41
0
 10
158838.793667651
 20
222449.716182414
 40
0
 41
0
 10
158838.884080408
 20
222449.579591521
 40
0
 41
0
 10
158840.95686444
 20
222450.948116785
 40
0
 41
0
 10
158840.868410582
 20
222451.082090011
 40
0
 41
0
 10
158841.523456956
 20
222451.520174021
 40
0
 41
0
 10
158841.625164662
 20
222451.362598375
 40
0
 41
0
 10
158841.815043528
 20
222451.487963112
 40
0
 41
0
 10
158841.718165095
 20
222451.638224287
 40
0
 41
0
 10
158842.381764093
 20
222452.075925182
 40
0
 41
0
 10
158842.475657127
 20
222451.935583717
 40
0
 41
0
 10
158844.446074884
 20
222453.240208848
 40
0
 41
0
 10
158844.355649772
 20
222453.376780836
 40
0
 41
0
 10
158845.009590091
 20
222453.81561297
 40
0
 41
0
 10
158845.102710065
 20
222453.674970845
 40
0
 41
0
 10
158845.289337517
 20
222453.798537974
 40
0
 41
0
 10
158845.201202858
 20
222453.931650616
 40
0
 41
0
 10
158845.85320036
 20
222454.369643793
 40
0
 41
0
 10
158845.944235822
 20
222454.232149975
 40
0
 41
0
 10
158847.889289627
 20
222455.519981485
 40
0
 41
0
 10
158847.798291393
 20
222455.657419078
 40
0
 41
0
 10
158848.508017513
 20
222456.125476237
 40
0
 41
0
 10
158848.598161104
 20
222455.98932944
 40
0
 41
0
 10
158848.996107154
 20
222456.252811849
 40
0
 41
0
 10
158848.908081636
 20
222456.385759651
 40
0
 41
0
 10
158849.619291125
 20
222456.851551781
 40
0
 41
0
 10
158849.704967285
 20
222456.722152291
 40
0
 41
0
 10
158850.651832595
 20
222457.349077355
 40
0
 41
0
 10
158851.306143755
 20
222456.357476216
 40
0
 41
0
 10
158851.171652217
 20
222456.26939373
 40
0
 41
0
 10
158851.801287116
 20
222455.31644587
 40
0
 41
0
 10
158852.695424803
 20
222453.963174955
 40
0
 41
0
 10
158853.373460388
 20
222452.936973007
 40
0
 41
0
  0
LWPOLYLINE
  5
FD
100
AcDbEntity
  8
LOCATION
100
AcDbPolyline
 90
11
 70
1
 10
158844.612414968
 20
222447.181640964
 40
0
 41
0
 10
158844.573803695
 20
222447.240115096
 40
0
 41
0
 10
158843.601140706
 20
222448.713146656
 40
0
 41
0
 10
158843.562725811
 20
222448.771323387
 40
0
 41
0
 10
158843.514394519
 20
222448.742361759
 40
0
 41
0
 10
158842.468904054
 20
222450.343820226
 40
0
 41
0
 10
158842.542402537
 20
222450.391932154
 40
0
 41
0
 10
158843.21185459
 20
222450.830153843
 40
0
 41
0
 10
158844.171623695
 20
222451.458416368
 40
0
 41
0
 10
158846.274183292
 20
222448.26998219
 40
0
 41
0
 10
158844.612414968
 20
222447.181640964
 40
0
 41
0
  0
LWPOLYLINE
  5
FE
100
AcDbEntity
  8
LOCATION
100
AcDbPolyline
 90
11
 70
1
 10
158846.822954808
 20
222455.021096949
 40
0
 41
0
 10
158845.85320036
 20
222454.369643793
 40
0
 41
0
 10
158845.201202858
 20
222453.931650616
 40
0
 41
0
 10
158845.12396195
 20
222453.879762395
 40
0
 41
0
 10
158844.52940832
 20
222454.784640193
 40
0
 41
0
 10
158844.5872873
 20
222454.810723046
 40
0
 41
0
 10
158844.068511786
 20
222455.596695678
 40
0
 41
0
 10
158843.100013747
 20
222457.064021975
 40
0
 41
0
 10
158843.081346455
 20
222457.09230392
 40
0
 41
0
 10
158844.737953211
 20
222458.169119028
 40
0
 41
0
 10
158846.822954808
 20
222455.021096949
 40
0
 41
0
  0
LWPOLYLINE
  5
FF
100
AcDbEntity
  8
LOCATION
100
AcDbPolyline
 90
13
 70
1
 10
158837.337669322
 20
222446.94887296
 40
0
 41
0
 10
158838.117351725
 20
222447.464952806
 40
0
 41
0
 10
158838.782109189
 20
222447.904962646
 40
0
 41
0
 10
158838.81362893
 20
222447.925825888
 40
0
 41
0
 10
158839.912245018
 20
222446.251256312
 40
0
 41
0
 10
158840.018563696
 20
222446.312008996
 40
0
 41
0
 10
158840.058502515
 20
222446.251466956
 40
0
 41
0
 10
158840.094263756
 20
222446.275058194
 40
0
 41
0
 10
158841.009514747
 20
222444.871263763
 40
0
 41
0
 10
158840.981288721
 20
222444.85264341
 40
0
 41
0
 10
158841.016302308
 20
222444.799567378
 40
0
 41
0
 10
158839.447603536
 20
222443.761229437
 40
0
 41
0
 10
158837.337669322
 20
222446.94887296
 40
0
 41
0
  0
LWPOLYLINE
  5
100
100
AcDbEntity
  8
LOCATION
100
AcDbPolyline
 90
13
 70
1
 10
158836.312627127
 20
222448.074406948
 40
0
 41
0
 10
158834.221020847
 20
222451.227343419
 40
0
 41
0
 10
158835.994262034
 20
222452.410652965
 40
0
 41
0
 10
158836.027078506
 20
222452.359853175
 40
0
 41
0
 10
158836.056630389
 20
222452.37894358
 40
0
 41
0
 10
158836.969329023
 20
222451.00227698
 40
0
 41
0
 10
158836.923283083
 20
222450.972531476
 40
0
 41
0
 10
158836.961151765
 20
222450.913910882
 40
0
 41
0
 10
158836.874530097
 20
222450.85717979
 40
0
 41
0
 10
158837.985959661
 20
222449.184468273
 40
0
 41
0
 10
158837.949746963
 20
222449.160445363
 40
0
 41
0
 10
158837.294891197
 20
222448.726024802
 40
0
 41
0
 10
158836.312627127
 20
222448.074406948
 40
0
 41
0
  0
LWPOLYLINE
  5
101
100
AcDbEntity
  8
LOCATION
100
AcDbPolyline
 90
11
 70
1
 10
158851.372337847
 20
222456.348875469
 40
0
 41
0
 10
158851.347842993
 20
222456.385423477
 40
0
 41
0
 10
158851.306143755
 20
222456.357476216
 40
0
 41
0
 10
158850.651832595
 20
222457.349077355
 40
0
 41
0
 10
158850.686444939
 20
222457.372274907
 40
0
 41
0
 10
158850.663925551
 20
222457.405875385
 40
0
 41
0
 10
158852.522056931
 20
222458.63943952
 40
0
 41
0
 10
158853.212295397
 20
222457.59820642
 40
0
 41
0
 10
158853.143734591
 20
222457.55862253
 40
0
 41
0
 10
158853.157974955
 20
222457.537932143
 40
0
 41
0
 10
158851.372337847
 20
222456.348875469
 40
0
 41
0
  0
LWPOLYLINE
  5
102
100
AcDbEntity
  8
LOCATION
100
AcDbPolyline
 90
13
 70
1
 10
158844.303268344
 20
222451.545451037
 40
0
 41
0
 10
158845.186725462
 20
222452.131490826
 40
0
 41
0
 10
158845.836749062
 20
222452.562682884
 40
0
 41
0
 10
158845.874741481
 20
222452.587885091
 40
0
 41
0
 10
158846.984633429
 20
222450.896584579
 40
0
 41
0
 10
158847.063859481
 20
222450.945571273
 40
0
 41
0
 10
158847.06487392
 20
222450.944093424
 40
0
 41
0
 10
158847.118510291
 20
222450.980910995
 40
0
 41
0
 10
158848.09507409
 20
222449.509429325
 40
0
 41
0
 10
158848.064211318
 20
222449.488244217
 40
0
 41
0
 10
158848.081558816
 20
222449.462972131
 40
0
 41
0
 10
158846.411719951
 20
222448.366952552
 40
0
 41
0
 10
158844.303268344
 20
222451.545451037
 40
0
 41
0
  0
LWPOLYLINE
  5
103
100
AcDbEntity
  8
LOCATION
100
AcDbPolyline
 90
7
 70
1
 10
158846.954570505
 20
222455.100993733
 40
0
 41
0
 10
158844.874309381
 20
222458.263096656
 40
0
 41
0
 10
158846.54190366
 20
222459.372908061
 40
0
 41
0
 10
158848.628558805
 20
222456.204971993
 40
0
 41
0
 10
158848.508017513
 20
222456.125476237
 40
0
 41
0
 10
158847.798291393
 20
222455.657419078
 40
0
 41
0
 10
158846.954570505
 20
222455.100993733
 40
0
 41
0
  0
LWPOLYLINE
  5
104
100
AcDbEntity
  8
LOCATION
100
AcDbPolyline
 90
11
 70
1
 10
158847.645488316
 20
222453.750683844
 40
0
 41
0
 10
158849.750358925
 20
222450.579982308
 40
0
 41
0
 10
158848.112422461
 20
222449.483288882
 40
0
 41
0
 10
158848.09507409
 20
222449.509429325
 40
0
 41
0
 10
158847.118510291
 20
222450.980910995
 40
0
 41
0
 10
158846.600195613
 20
222451.761905077
 40
0
 41
0
 10
158846.544492306
 20
222451.732109327
 40
0
 41
0
 10
158845.947580943
 20
222452.636034113
 40
0
 41
0
 10
158846.023023681
 20
222452.685561095
 40
0
 41
0
 10
158846.679468368
 20
222453.116506803
 40
0
 41
0
 10
158847.645488316
 20
222453.750683844
 40
0
 41
0
  0
LWPOLYLINE
  5
105
100
AcDbEntity
  8
LOCATION
100
AcDbPolyline
 90
7
 70
1
 10
158850.439087645
 20
222457.38846077
 40
0
 41
0
 10
158849.619291125
 20
222456.851551781
 40
0
 41
0
 10
158848.908081636
 20
222456.385759651
 40
0
 41
0
 10
158848.755196603
 20
222456.285630721
 40
0
 41
0
 10
158846.670187781
 20
222459.454314975
 40
0
 41
0
 10
158848.340949469
 20
222460.578958055
 40
0
 41
0
 10
158850.439087645
 20
222457.38846077
 40
0
 41
0
  0
LWPOLYLINE
  5
106
100
AcDbEntity
  8
LOCATION
100
AcDbPolyline
 90
7
 70
1
 10
158847.78297689
 20
222453.841806256
 40
0
 41
0
 10
158848.63333076
 20
222454.398728156
 40
0
 41
0
 10
158849.33314266
 20
222454.857055669
 40
0
 41
0
 10
158849.471722393
 20
222454.947815634
 40
0
 41
0
 10
158851.576820928
 20
222451.770507215
 40
0
 41
0
 10
158849.883450797
 20
222450.670390335
 40
0
 41
0
 10
158847.78297689
 20
222453.841806256
 40
0
 41
0
  0
LWPOLYLINE
  5
107
100
AcDbEntity
  8
LOCATION
100
AcDbPolyline
 90
9
 70
1
 10
158832.158485761
 20
222445.572694654
 40
0
 41
0
 10
158830.215955807
 20
222448.538708132
 40
0
 41
0
 10
158834.08963011
 20
222451.118937881
 40
0
 41
0
 10
158836.072450829
 20
222448.136066142
 40
0
 41
0
 10
158835.255863975
 20
222447.601259259
 40
0
 41
0
 10
158835.335480721
 20
222447.479693904
 40
0
 41
0
 10
158834.662326847
 20
222447.032357853
 40
0
 41
0
 10
158834.579745743
 20
222447.158449431
 40
0
 41
0
 10
158832.158485761
 20
222445.572694654
 40
0
 41
0
  0
LWPOLYLINE
  5
108
100
AcDbEntity
  8
LOCATION
100
AcDbPolyline
 90
13
 70
1
 10
158840.000557377
 20
222450.501684369
 40
0
 41
0
 10
158837.900867163
 20
222453.65273194
 40
0
 41
0
 10
158839.56113479
 20
222454.766966425
 40
0
 41
0
 10
158839.584618734
 20
222454.731650657
 40
0
 41
0
 10
158839.61582355
 20
222454.752400939
 40
0
 41
0
 10
158840.588461827
 20
222453.299625347
 40
0
 41
0
 10
158840.552690788
 20
222453.275838661
 40
0
 41
0
 10
158840.551782102
 20
222453.277205167
 40
0
 41
0
 10
158840.456262845
 20
222453.206804648
 40
0
 41
0
 10
158841.565287648
 20
222451.548149685
 40
0
 41
0
 10
158841.523456956
 20
222451.520174021
 40
0
 41
0
 10
158840.868410582
 20
222451.082090011
 40
0
 41
0
 10
158840.000557377
 20
222450.501684369
 40
0
 41
0
  0
LWPOLYLINE
  5
109
100
AcDbEntity
  8
LOCATION
100
AcDbPolyline
 90
11
 70
1
 10
158840.694882753
 20
222449.159318475
 40
0
 41
0
 10
158842.798785183
 20
222445.978360749
 40
0
 41
0
 10
158841.043753373
 20
222444.818749214
 40
0
 41
0
 10
158841.009514747
 20
222444.871263763
 40
0
 41
0
 10
158840.094263756
 20
222446.275058194
 40
0
 41
0
 10
158839.950639933
 20
222446.49534566
 40
0
 41
0
 10
158839.899685495
 20
222446.461974091
 40
0
 41
0
 10
158838.902093451
 20
222447.96726177
 40
0
 41
0
 10
158838.970026288
 20
222448.012431492
 40
0
 41
0
 10
158839.63259599
 20
222448.45298558
 40
0
 41
0
 10
158840.694882753
 20
222449.159318475
 40
0
 41
0
  0
LWPOLYLINE
  5
10A
100
AcDbEntity
  8
LOCATION
100
AcDbPolyline
 90
11
 70
1
 10
158843.339726834
 20
222452.707784408
 40
0
 41
0
 10
158842.381764093
 20
222452.075925182
 40
0
 41
0
 10
158841.718165095
 20
222451.638224287
 40
0
 41
0
 10
158841.647036694
 20
222451.591308959
 40
0
 41
0
 10
158840.652562611
 20
222453.09903264
 40
0
 41
0
 10
158840.702581407
 20
222453.130497441
 40
0
 41
0
 10
158840.588461827
 20
222453.299625347
 40
0
 41
0
 10
158839.61582355
 20
222454.752400939
 40
0
 41
0
 10
158839.590322321
 20
222454.790490704
 40
0
 41
0
 10
158841.254056814
 20
222455.873381076
 40
0
 41
0
 10
158843.339726834
 20
222452.707784408
 40
0
 41
0
  0
LWPOLYLINE
  5
10B
100
AcDbEntity
  8
LOCATION
100
AcDbPolyline
 90
13
 70
1
 10
158842.920290953
 20
222446.065362729
 40
0
 41
0
 10
158840.822962306
 20
222449.249639653
 40
0
 41
0
 10
158841.699567709
 20
222449.827017082
 40
0
 41
0
 10
158842.360846561
 20
222450.262569363
 40
0
 41
0
 10
158842.400317164
 20
222450.288566734
 40
0
 41
0
 10
158843.453679303
 20
222448.666615376
 40
0
 41
0
 10
158843.550991965
 20
222448.727656352
 40
0
 41
0
 10
158843.572908251
 20
222448.694490437
 40
0
 41
0
 10
158843.601140706
 20
222448.713146656
 40
0
 41
0
 10
158844.573803695
 20
222447.240115096
 40
0
 41
0
 10
158844.546077526
 20
222447.221793435
 40
0
 41
0
 10
158844.582449206
 20
222447.166752174
 40
0
 41
0
 10
158842.920290953
 20
222446.065362729
 40
0
 41
0
  0
LWPOLYLINE
  5
10C
100
AcDbEntity
  8
LOCATION
100
AcDbPolyline
 90
11
 70
1
 10
158839.864545485
 20
222450.421772443
 40
0
 41
0
 10
158838.793667651
 20
222449.716182414
 40
0
 41
0
 10
158838.136699611
 20
222449.283313152
 40
0
 41
0
 10
158838.06368935
 20
222449.235207467
 40
0
 41
0
 10
158837.082631234
 20
222450.72416472
 40
0
 41
0
 10
158837.134008776
 20
222450.753882704
 40
0
 41
0
 10
158836.969329023
 20
222451.00227698
 40
0
 41
0
 10
158836.056630389
 20
222452.37894358
 40
0
 41
0
 10
158836.02191871
 20
222452.43130085
 40
0
 41
0
 10
158837.762564189
 20
222453.571735609
 40
0
 41
0
 10
158839.864545485
 20
222450.421772443
 40
0
 41
0
  0
LWPOLYLINE
  5
10D
100
AcDbEntity
  8
LOCATION
100
AcDbPolyline
 90
5
 70
1
 10
158832.01189433
 20
222445.101822063
 40
0
 41
0
 10
158830.338276796
 20
222444.002050176
 40
0
 41
0
 10
158829.445800781
 20
222445.354853854
 40
0
 41
0
 10
158831.119805433
 20
222446.454874862
 40
0
 41
0
 10
158832.01189433
 20
222445.101822063
 40
0
 41
0
  0
INSERT
  5
115
100
AcDbEntity
  8
LCANCHOR
100
AcDbBlockReference
  2
$LCANCHOR
 10
158843.234933737
 20
222454.881927639
 30
0
 41
0.01
 42
0.01
  0
INSERT
  5
116
100
AcDbEntity
  8
LCANCHOR
100
AcDbBlockReference
  2
$LCANCHOR
 10
158842.646981409
 20
222451.232648469
 30
0
 41
0.01
 42
0.01
  0
INSERT
  5
117
100
AcDbEntity
  8
LCANCHOR
100
AcDbBlockReference
  2
$LCANCHOR
 10
158844.386543673
 20
222449.276204724
 30
0
 41
0.01
 42
0.01
  0
INSERT
  5
118
100
AcDbEntity
  8
LCANCHOR
100
AcDbBlockReference
  2
$LCANCHOR
 10
158844.967150632
 20
222455.980616769
 30
0
 41
0.01
 42
0.01
  0
INSERT
  5
119
100
AcDbEntity
  8
LCANCHOR
100
AcDbBlockReference
  2
$LCANCHOR
 10
158839.191985815
 20
222445.79970372
 30
0
 41
0.01
 42
0.01
  0
INSERT
  5
11A
100
AcDbEntity
  8
LCANCHOR
100
AcDbBlockReference
  2
$LCANCHOR
 10
158836.118490254
 20
222450.198706015
 30
0
 41
0.01
 42
0.01
  0
INSERT
  5
11B
100
AcDbEntity
  8
LCANCHOR
100
AcDbBlockReference
  2
$LCANCHOR
 10
158851.947063996
 20
222457.450333553
 30
0
 41
0.01
 42
0.01
  0
INSERT
  5
11C
100
AcDbEntity
  8
LCANCHOR
100
AcDbBlockReference
  2
$LCANCHOR
 10
158846.214171217
 20
222450.433594879
 30
0
 41
0.01
 42
0.01
  0
INSERT
  5
11D
100
AcDbEntity
  8
LCANCHOR
100
AcDbBlockReference
  2
$LCANCHOR
 10
158846.766434093
 20
222457.193126955
 30
0
 41
0.01
 42
0.01
  0
INSERT
  5
11E
100
AcDbEntity
  8
LCANCHOR
100
AcDbBlockReference
  2
$LCANCHOR
 10
158847.863969934
 20
222451.573162421
 30
0
 41
0.01
 42
0.01
  0
INSERT
  5
11F
100
AcDbEntity
  8
LCANCHOR
100
AcDbBlockReference
  2
$LCANCHOR
 10
158848.569637713
 20
222458.388470446
 30
0
 41
0.01
 42
0.01
  0
INSERT
  5
120
100
AcDbEntity
  8
LCANCHOR
100
AcDbBlockReference
  2
$LCANCHOR
 10
158849.694898909
 20
222452.765279043
 30
0
 41
0.01
 42
0.01
  0
INSERT
  5
121
100
AcDbEntity
  8
LCANCHOR
100
AcDbBlockReference
  2
$LCANCHOR
 10
158833.159203318
 20
222448.301992326
 30
0
 41
0.01
 42
0.01
  0
INSERT
  5
122
100
AcDbEntity
  8
LCANCHOR
100
AcDbBlockReference
  2
$LCANCHOR
 10
158839.748077406
 20
222452.590501455
 30
0
 41
0.01
 42
0.01
  0
INSERT
  5
123
100
AcDbEntity
  8
LCANCHOR
100
AcDbBlockReference
  2
$LCANCHOR
 10
158840.865439317
 20
222446.945209903
 30
0
 41
0.01
 42
0.01
  0
INSERT
  5
124
100
AcDbEntity
  8
LCANCHOR
100
AcDbBlockReference
  2
$LCANCHOR
 10
158841.480024577
 20
222453.688521075
 30
0
 41
0.01
 42
0.01
  0
INSERT
  5
125
100
AcDbEntity
  8
LCANCHOR
100
AcDbBlockReference
  2
$LCANCHOR
 10
158842.717705756
 20
222448.13314079
 30
0
 41
0.01
 42
0.01
  0
INSERT
  5
126
100
AcDbEntity
  8
LCANCHOR
100
AcDbBlockReference
  2
$LCANCHOR
 10
158837.958232098
 20
222451.359647596
 30
0
 41
0.01
 42
0.01
  0
INSERT
  5
127
100
AcDbEntity
  8
LCANCHOR
100
AcDbBlockReference
  2
$LCANCHOR
 10
158830.751490172
 20
222445.126985982
 30
0
 41
0.01
 42
0.01
  0
LWPOLYLINE
  5
129
100
AcDbEntity
  8
LOCCARD
100
AcDbPolyline
 90
5
 70
1
 10
158843.234933737
 20
222454.881927639
 40
0
 41
0
 10
158843.234933737
 20
222457.011927639
 40
0
 41
0
 10
158847.430933737
 20
222457.011927639
 40
0
 41
0
 10
158847.430933737
 20
222454.881927639
 40
0
 41
0
 10
158843.234933737
 20
222454.881927639
 40
0
 41
0
  0
TEXT
  5
12A
100
AcDbEntity
  8
LOCCARD
 62
7
100
AcDbText
 10
158843.447933737
 20
222456.448927639
 30
0
 40
0.35
  1
0.09
 50
0
 41
1
 72
0
 11
158843.447933737
 21
222456.448927639
 31
0
100
AcDbText
 73
0
  0
TEXT
  5
12B
100
AcDbEntity
  8
LOCCARD
 62
7
100
AcDbText
 10
158843.447933737
 20
222455.998927639
 30
0
 40
0.3
  1
INTERNAATKAMER
 50
0
 41
1
 72
0
 11
158843.447933737
 21
222455.998927639
 31
0
100
AcDbText
 73
0
  0
TEXT
  5
12C
100
AcDbEntity
  8
LOCCARD
 62
7
100
AcDbText
 10
158843.447933737
 20
222455.548927639
 30
0
 40
0.3
  1

 50
0
 41
1
 72
0
 11
158843.447933737
 21
222455.548927639
 31
0
100
AcDbText
 73
0
  0
TEXT
  5
12D
100
AcDbEntity
  8
LOCCARD
 62
7
100
AcDbText
 10
158843.447933737
 20
222455.098927639
 30
0
 40
0.3
  1
Opp: 7.44 m²
 50
0
 41
1
 72
0
 11
158843.447933737
 21
222455.098927639
 31
0
100
AcDbText
 73
0
  0
LINE
  5
12E
100
AcDbEntity
  8
LOCCARD
100
AcDbLine
 10
158843.234933737
 20
222454.881927639
 30
0
 11
158843.234933737
 21
222454.881927639
 31
0
  0
LWPOLYLINE
  5
12F
100
AcDbEntity
  8
LOCCARD
100
AcDbPolyline
 90
5
 70
1
 10
158842.646981409
 20
222451.232648469
 40
0
 41
0
 10
158842.646981409
 20
222453.362648469
 40
0
 41
0
 10
158845.712981409
 20
222453.362648469
 40
0
 41
0
 10
158845.712981409
 20
222451.232648469
 40
0
 41
0
 10
158842.646981409
 20
222451.232648469
 40
0
 41
0
  0
TEXT
  5
130
100
AcDbEntity
  8
LOCCARD
 62
7
100
AcDbText
 10
158842.859981409
 20
222452.799648469
 30
0
 40
0.35
  1
0.10
 50
0
 41
1
 72
0
 11
158842.859981409
 21
222452.799648469
 31
0
100
AcDbText
 73
0
  0
TEXT
  5
131
100
AcDbEntity
  8
LOCCARD
 62
7
100
AcDbText
 10
158842.859981409
 20
222452.349648469
 30
0
 40
0.3
  1
GANG
 50
0
 41
1
 72
0
 11
158842.859981409
 21
222452.349648469
 31
0
100
AcDbText
 73
0
  0
TEXT
  5
132
100
AcDbEntity
  8
LOCCARD
 62
7
100
AcDbText
 10
158842.859981409
 20
222451.899648469
 30
0
 40
0.3
  1

 50
0
 41
1
 72
0
 11
158842.859981409
 21
222451.899648469
 31
0
100
AcDbText
 73
0
  0
TEXT
  5
133
100
AcDbEntity
  8
LOCCARD
 62
7
100
AcDbText
 10
158842.859981409
 20
222451.449648469
 30
0
 40
0.3
  1
Opp: 33.85 m²
 50
0
 41
1
 72
0
 11
158842.859981409
 21
222451.449648469
 31
0
100
AcDbText
 73
0
  0
LINE
  5
134
100
AcDbEntity
  8
LOCCARD
100
AcDbLine
 10
158842.646981409
 20
222451.232648469
 30
0
 11
158842.646981409
 21
222451.232648469
 31
0
  0
LWPOLYLINE
  5
135
100
AcDbEntity
  8
LOCCARD
100
AcDbPolyline
 90
5
 70
1
 10
158844.386543673
 20
222449.276204724
 40
0
 41
0
 10
158844.386543673
 20
222451.406204724
 40
0
 41
0
 10
158848.582543673
 20
222451.406204724
 40
0
 41
0
 10
158848.582543673
 20
222449.276204724
 40
0
 41
0
 10
158844.386543673
 20
222449.276204724
 40
0
 41
0
  0
TEXT
  5
136
100
AcDbEntity
  8
LOCCARD
 62
7
100
AcDbText
 10
158844.599543673
 20
222450.843204724
 30
0
 40
0.35
  1
0.11
 50
0
 41
1
 72
0
 11
158844.599543673
 21
222450.843204724
 31
0
100
AcDbText
 73
0
  0
TEXT
  5
137
100
AcDbEntity
  8
LOCCARD
 62
7
100
AcDbText
 10
158844.599543673
 20
222450.393204724
 30
0
 40
0.3
  1
INTERNAATKAMER
 50
0
 41
1
 72
0
 11
158844.599543673
 21
222450.393204724
 31
0
100
AcDbText
 73
0
  0
TEXT
  5
138
100
AcDbEntity
  8
LOCCARD
 62
7
100
AcDbText
 10
158844.599543673
 20
222449.943204724
 30
0
 40
0.3
  1

 50
0
 41
1
 72
0
 11
158844.599543673
 21
222449.943204724
 31
0
100
AcDbText
 73
0
  0
TEXT
  5
139
100
AcDbEntity
  8
LOCCARD
 62
7
100
AcDbText
 10
158844.599543673
 20
222449.493204724
 30
0
 40
0.3
  1
Opp: 7.69 m²
 50
0
 41
1
 72
0
 11
158844.599543673
 21
222449.493204724
 31
0
100
AcDbText
 73
0
  0
LINE
  5
13A
100
AcDbEntity
  8
LOCCARD
100
AcDbLine
 10
158844.386543673
 20
222449.276204724
 30
0
 11
158844.386543673
 21
222449.276204724
 31
0
  0
LWPOLYLINE
  5
13B
100
AcDbEntity
  8
LOCCARD
100
AcDbPolyline
 90
5
 70
1
 10
158844.967150632
 20
222455.980616769
 40
0
 41
0
 10
158844.967150632
 20
222458.110616769
 40
0
 41
0
 10
158849.163150632
 20
222458.110616769
 40
0
 41
0
 10
158849.163150632
 20
222455.980616769
 40
0
 41
0
 10
158844.967150632
 20
222455.980616769
 40
0
 41
0
  0
TEXT
  5
13C
100
AcDbEntity
  8
LOCCARD
 62
7
100
AcDbText
 10
158845.180150632
 20
222457.547616769
 30
0
 40
0.35
  1
0.12
 50
0
 41
1
 72
0
 11
158845.180150632
 21
222457.547616769
 31
0
100
AcDbText
 73
0
  0
TEXT
  5
13D
100
AcDbEntity
  8
LOCCARD
 62
7
100
AcDbText
 10
158845.180150632
 20
222457.097616769
 30
0
 40
0.3
  1
INTERNAATKAMER
 50
0
 41
1
 72
0
 11
158845.180150632
 21
222457.097616769
 31
0
100
AcDbText
 73
0
  0
TEXT
  5
13E
100
AcDbEntity
  8
LOCCARD
 62
7
100
AcDbText
 10
158845.180150632
 20
222456.647616769
 30
0
 40
0.3
  1

 50
0
 41
1
 72
0
 11
158845.180150632
 21
222456.647616769
 31
0
100
AcDbText
 73
0
  0
TEXT
  5
13F
100
AcDbEntity
  8
LOCCARD
 62
7
100
AcDbText
 10
158845.180150632
 20
222456.197616769
 30
0
 40
0.3
  1
Opp: 7.57 m²
 50
0
 41
1
 72
0
 11
158845.180150632
 21
222456.197616769
 31
0
100
AcDbText
 73
0
  0
LINE
  5
140
100
AcDbEntity
  8
LOCCARD
100
AcDbLine
 10
158844.967150632
 20
222455.980616769
 30
0
 11
158844.967150632
 21
222455.980616769
 31
0
  0
LWPOLYLINE
  5
141
100
AcDbEntity
  8
LOCCARD
100
AcDbPolyline
 90
5
 70
1
 10
158839.191985815
 20
222445.79970372
 40
0
 41
0
 10
158839.191985815
 20
222447.92970372
 40
0
 41
0
 10
158843.387985815
 20
222447.92970372
 40
0
 41
0
 10
158843.387985815
 20
222445.79970372
 40
0
 41
0
 10
158839.191985815
 20
222445.79970372
 40
0
 41
0
  0
TEXT
  5
142
100
AcDbEntity
  8
LOCCARD
 62
7
100
AcDbText
 10
158839.404985815
 20
222447.36670372
 30
0
 40
0.35
  1
0.04
 50
0
 41
1
 72
0
 11
158839.404985815
 21
222447.36670372
 31
0
100
AcDbText
 73
0
  0
TEXT
  5
143
100
AcDbEntity
  8
LOCCARD
 62
7
100
AcDbText
 10
158839.404985815
 20
222446.91670372
 30
0
 40
0.3
  1
INTERNAATKAMER
 50
0
 41
1
 72
0
 11
158839.404985815
 21
222446.91670372
 31
0
100
AcDbText
 73
0
  0
TEXT
  5
144
100
AcDbEntity
  8
LOCCARD
 62
7
100
AcDbText
 10
158839.404985815
 20
222446.46670372
 30
0
 40
0.3
  1

 50
0
 41
1
 72
0
 11
158839.404985815
 21
222446.46670372
 31
0
100
AcDbText
 73
0
  0
TEXT
  5
145
100
AcDbEntity
  8
LOCCARD
 62
7
100
AcDbText
 10
158839.404985815
 20
222446.01670372
 30
0
 40
0.3
  1
Opp: 7.03 m²
 50
0
 41
1
 72
0
 11
158839.404985815
 21
222446.01670372
 31
0
100
AcDbText
 73
0
  0
LINE
  5
146
100
AcDbEntity
  8
LOCCARD
100
AcDbLine
 10
158839.191985815
 20
222445.79970372
 30
0
 11
158839.191985815
 21
222445.79970372
 31
0
  0
LWPOLYLINE
  5
147
100
AcDbEntity
  8
LOCCARD
100
AcDbPolyline
 90
5
 70
1
 10
158836.118490254
 20
222450.198706015
 40
0
 41
0
 10
158836.118490254
 20
222452.328706015
 40
0
 41
0
 10
158840.314490254
 20
222452.328706015
 40
0
 41
0
 10
158840.314490254
 20
222450.198706015
 40
0
 41
0
 10
158836.118490254
 20
222450.198706015
 40
0
 41
0
  0
TEXT
  5
148
100
AcDbEntity
  8
LOCCARD
 62
7
100
AcDbText
 10
158836.331490254
 20
222451.765706015
 30
0
 40
0.35
  1
0.02
 50
0
 41
1
 72
0
 11
158836.331490254
 21
222451.765706015
 31
0
100
AcDbText
 73
0
  0
TEXT
  5
149
100
AcDbEntity
  8
LOCCARD
 62
7
100
AcDbText
 10
158836.331490254
 20
222451.315706015
 30
0
 40
0.3
  1
INTERNAATKAMER
 50
0
 41
1
 72
0
 11
158836.331490254
 21
222451.315706015
 31
0
100
AcDbText
 73
0
  0
TEXT
  5
14A
100
AcDbEntity
  8
LOCCARD
 62
7
100
AcDbText
 10
158836.331490254
 20
222450.865706015
 30
0
 40
0.3
  1

 50
0
 41
1
 72
0
 11
158836.331490254
 21
222450.865706015
 31
0
100
AcDbText
 73
0
  0
TEXT
  5
14B
100
AcDbEntity
  8
LOCCARD
 62
7
100
AcDbText
 10
158836.331490254
 20
222450.415706015
 30
0
 40
0.3
  1
Opp: 7.88 m²
 50
0
 41
1
 72
0
 11
158836.331490254
 21
222450.415706015
 31
0
100
AcDbText
 73
0
  0
LINE
  5
14C
100
AcDbEntity
  8
LOCCARD
100
AcDbLine
 10
158836.118490254
 20
222450.198706015
 30
0
 11
158836.118490254
 21
222450.198706015
 31
0
  0
LWPOLYLINE
  5
14D
100
AcDbEntity
  8
LOCCARD
100
AcDbPolyline
 90
5
 70
1
 10
158851.947063996
 20
222457.450333553
 40
0
 41
0
 10
158851.947063996
 20
222459.580333553
 40
0
 41
0
 10
158854.783063996
 20
222459.580333553
 40
0
 41
0
 10
158854.783063996
 20
222457.450333553
 40
0
 41
0
 10
158851.947063996
 20
222457.450333553
 40
0
 41
0
  0
TEXT
  5
14E
100
AcDbEntity
  8
LOCCARD
 62
7
100
AcDbText
 10
158852.160063996
 20
222459.017333553
 30
0
 40
0.35
  1
0.18
 50
0
 41
1
 72
0
 11
158852.160063996
 21
222459.017333553
 31
0
100
AcDbText
 73
0
  0
TEXT
  5
14F
100
AcDbEntity
  8
LOCCARD
 62
7
100
AcDbText
 10
158852.160063996
 20
222458.567333553
 30
0
 40
0.3
  1
GANG
 50
0
 41
1
 72
0
 11
158852.160063996
 21
222458.567333553
 31
0
100
AcDbText
 73
0
  0
TEXT
  5
150
100
AcDbEntity
  8
LOCCARD
 62
7
100
AcDbText
 10
158852.160063996
 20
222458.117333553
 30
0
 40
0.3
  1

 50
0
 41
1
 72
0
 11
158852.160063996
 21
222458.117333553
 31
0
100
AcDbText
 73
0
  0
TEXT
  5
151
100
AcDbEntity
  8
LOCCARD
 62
7
100
AcDbText
 10
158852.160063996
 20
222457.667333553
 30
0
 40
0.3
  1
Opp: 2.88 m²
 50
0
 41
1
 72
0
 11
158852.160063996
 21
222457.667333553
 31
0
100
AcDbText
 73
0
  0
LINE
  5
152
100
AcDbEntity
  8
LOCCARD
100
AcDbLine
 10
158851.947063996
 20
222457.450333553
 30
0
 11
158851.947063996
 21
222457.450333553
 31
0
  0
LWPOLYLINE
  5
153
100
AcDbEntity
  8
LOCCARD
100
AcDbPolyline
 90
5
 70
1
 10
158846.214171217
 20
222450.433594879
 40
0
 41
0
 10
158846.214171217
 20
222452.563594879
 40
0
 41
0
 10
158850.410171217
 20
222452.563594879
 40
0
 41
0
 10
158850.410171217
 20
222450.433594879
 40
0
 41
0
 10
158846.214171217
 20
222450.433594879
 40
0
 41
0
  0
TEXT
  5
154
100
AcDbEntity
  8
LOCCARD
 62
7
100
AcDbText
 10
158846.427171217
 20
222452.000594879
 30
0
 40
0.35
  1
0.13
 50
0
 41
1
 72
0
 11
158846.427171217
 21
222452.000594879
 31
0
100
AcDbText
 73
0
  0
TEXT
  5
155
100
AcDbEntity
  8
LOCCARD
 62
7
100
AcDbText
 10
158846.427171217
 20
222451.550594879
 30
0
 40
0.3
  1
INTERNAATKAMER
 50
0
 41
1
 72
0
 11
158846.427171217
 21
222451.550594879
 31
0
100
AcDbText
 73
0
  0
TEXT
  5
156
100
AcDbEntity
  8
LOCCARD
 62
7
100
AcDbText
 10
158846.427171217
 20
222451.100594879
 30
0
 40
0.3
  1

 50
0
 41
1
 72
0
 11
158846.427171217
 21
222451.100594879
 31
0
100
AcDbText
 73
0
  0
TEXT
  5
157
100
AcDbEntity
  8
LOCCARD
 62
7
100
AcDbText
 10
158846.427171217
 20
222450.650594879
 30
0
 40
0.3
  1
Opp: 7.46 m²
 50
0
 41
1
 72
0
 11
158846.427171217
 21
222450.650594879
 31
0
100
AcDbText
 73
0
  0
LINE
  5
158
100
AcDbEntity
  8
LOCCARD
100
AcDbLine
 10
158846.214171217
 20
222450.433594879
 30
0
 11
158846.214171217
 21
222450.433594879
 31
0
  0
LWPOLYLINE
  5
159
100
AcDbEntity
  8
LOCCARD
100
AcDbPolyline
 90
5
 70
1
 10
158846.766434093
 20
222457.193126955
 40
0
 41
0
 10
158846.766434093
 20
222459.323126955
 40
0
 41
0
 10
158850.962434093
 20
222459.323126955
 40
0
 41
0
 10
158850.962434093
 20
222457.193126955
 40
0
 41
0
 10
158846.766434093
 20
222457.193126955
 40
0
 41
0
  0
TEXT
  5
15A
100
AcDbEntity
  8
LOCCARD
 62
7
100
AcDbText
 10
158846.979434093
 20
222458.760126955
 30
0
 40
0.35
  1
0.14
 50
0
 41
1
 72
0
 11
158846.979434093
 21
222458.760126955
 31
0
100
AcDbText
 73
0
  0
TEXT
  5
15B
100
AcDbEntity
  8
LOCCARD
 62
7
100
AcDbText
 10
158846.979434093
 20
222458.310126955
 30
0
 40
0.3
  1
INTERNAATKAMER
 50
0
 41
1
 72
0
 11
158846.979434093
 21
222458.310126955
 31
0
100
AcDbText
 73
0
  0
TEXT
  5
15C
100
AcDbEntity
  8
LOCCARD
 62
7
100
AcDbText
 10
158846.979434093
 20
222457.860126955
 30
0
 40
0.3
  1

 50
0
 41
1
 72
0
 11
158846.979434093
 21
222457.860126955
 31
0
100
AcDbText
 73
0
  0
TEXT
  5
15D
100
AcDbEntity
  8
LOCCARD
 62
7
100
AcDbText
 10
158846.979434093
 20
222457.410126955
 30
0
 40
0.3
  1
Opp: 7.59 m²
 50
0
 41
1
 72
0
 11
158846.979434093
 21
222457.410126955
 31
0
100
AcDbText
 73
0
  0
LINE
  5
15E
100
AcDbEntity
  8
LOCCARD
100
AcDbLine
 10
158846.766434093
 20
222457.193126955
 30
0
 11
158846.766434093
 21
222457.193126955
 31
0
  0
LWPOLYLINE
  5
15F
100
AcDbEntity
  8
LOCCARD
100
AcDbPolyline
 90
5
 70
1
 10
158847.863969934
 20
222451.573162421
 40
0
 41
0
 10
158847.863969934
 20
222453.703162421
 40
0
 41
0
 10
158852.059969934
 20
222453.703162421
 40
0
 41
0
 10
158852.059969934
 20
222451.573162421
 40
0
 41
0
 10
158847.863969934
 20
222451.573162421
 40
0
 41
0
  0
TEXT
  5
160
100
AcDbEntity
  8
LOCCARD
 62
7
100
AcDbText
 10
158848.076969934
 20
222453.140162421
 30
0
 40
0.35
  1
0.15
 50
0
 41
1
 72
0
 11
158848.076969934
 21
222453.140162421
 31
0
100
AcDbText
 73
0
  0
TEXT
  5
161
100
AcDbEntity
  8
LOCCARD
 62
7
100
AcDbText
 10
158848.076969934
 20
222452.690162421
 30
0
 40
0.3
  1
INTERNAATKAMER
 50
0
 41
1
 72
0
 11
158848.076969934
 21
222452.690162421
 31
0
100
AcDbText
 73
0
  0
TEXT
  5
162
100
AcDbEntity
  8
LOCCARD
 62
7
100
AcDbText
 10
158848.076969934
 20
222452.240162421
 30
0
 40
0.3
  1

 50
0
 41
1
 72
0
 11
158848.076969934
 21
222452.240162421
 31
0
100
AcDbText
 73
0
  0
TEXT
  5
163
100
AcDbEntity
  8
LOCCARD
 62
7
100
AcDbText
 10
158848.076969934
 20
222451.790162421
 30
0
 40
0.3
  1
Opp: 7.59 m²
 50
0
 41
1
 72
0
 11
158848.076969934
 21
222451.790162421
 31
0
100
AcDbText
 73
0
  0
LINE
  5
164
100
AcDbEntity
  8
LOCCARD
100
AcDbLine
 10
158847.863969934
 20
222451.573162421
 30
0
 11
158847.863969934
 21
222451.573162421
 31
0
  0
LWPOLYLINE
  5
165
100
AcDbEntity
  8
LOCCARD
100
AcDbPolyline
 90
5
 70
1
 10
158848.569637713
 20
222458.388470446
 40
0
 41
0
 10
158848.569637713
 20
222460.518470446
 40
0
 41
0
 10
158853.565637713
 20
222460.518470446
 40
0
 41
0
 10
158853.565637713
 20
222458.388470446
 40
0
 41
0
 10
158848.569637713
 20
222458.388470446
 40
0
 41
0
  0
TEXT
  5
166
100
AcDbEntity
  8
LOCCARD
 62
7
100
AcDbText
 10
158848.782637713
 20
222459.955470446
 30
0
 40
0.35
  1
0.16
 50
0
 41
1
 72
0
 11
158848.782637713
 21
222459.955470446
 31
0
100
AcDbText
 73
0
  0
TEXT
  5
167
100
AcDbEntity
  8
LOCCARD
 62
7
100
AcDbText
 10
158848.782637713
 20
222459.505470446
 30
0
 40
0.3
  1
ONDERHOUDSLOKAAL
 50
0
 41
1
 72
0
 11
158848.782637713
 21
222459.505470446
 31
0
100
AcDbText
 73
0
  0
TEXT
  5
168
100
AcDbEntity
  8
LOCCARD
 62
7
100
AcDbText
 10
158848.782637713
 20
222459.055470446
 30
0
 40
0.3
  1

 50
0
 41
1
 72
0
 11
158848.782637713
 21
222459.055470446
 31
0
100
AcDbText
 73
0
  0
TEXT
  5
169
100
AcDbEntity
  8
LOCCARD
 62
7
100
AcDbText
 10
158848.782637713
 20
222458.605470446
 30
0
 40
0.3
  1
Opp: 7.66 m²
 50
0
 41
1
 72
0
 11
158848.782637713
 21
222458.605470446
 31
0
100
AcDbText
 73
0
  0
LINE
  5
16A
100
AcDbEntity
  8
LOCCARD
100
AcDbLine
 10
158848.569637713
 20
222458.388470446
 30
0
 11
158848.569637713
 21
222458.388470446
 31
0
  0
LWPOLYLINE
  5
16B
100
AcDbEntity
  8
LOCCARD
100
AcDbPolyline
 90
5
 70
1
 10
158849.694898909
 20
222452.765279043
 40
0
 41
0
 10
158849.694898909
 20
222454.895279043
 40
0
 41
0
 10
158852.530898909
 20
222454.895279043
 40
0
 41
0
 10
158852.530898909
 20
222452.765279043
 40
0
 41
0
 10
158849.694898909
 20
222452.765279043
 40
0
 41
0
  0
TEXT
  5
16C
100
AcDbEntity
  8
LOCCARD
 62
7
100
AcDbText
 10
158849.907898909
 20
222454.332279043
 30
0
 40
0.35
  1
0.17
 50
0
 41
1
 72
0
 11
158849.907898909
 21
222454.332279043
 31
0
100
AcDbText
 73
0
  0
TEXT
  5
16D
100
AcDbEntity
  8
LOCCARD
 62
7
100
AcDbText
 10
158849.907898909
 20
222453.882279043
 30
0
 40
0.3
  1
TOILETTEN
 50
0
 41
1
 72
0
 11
158849.907898909
 21
222453.882279043
 31
0
100
AcDbText
 73
0
  0
TEXT
  5
16E
100
AcDbEntity
  8
LOCCARD
 62
7
100
AcDbText
 10
158849.907898909
 20
222453.432279043
 30
0
 40
0.3
  1

 50
0
 41
1
 72
0
 11
158849.907898909
 21
222453.432279043
 31
0
100
AcDbText
 73
0
  0
TEXT
  5
16F
100
AcDbEntity
  8
LOCCARD
 62
7
100
AcDbText
 10
158849.907898909
 20
222452.982279043
 30
0
 40
0.3
  1
Opp: 7.69 m²
 50
0
 41
1
 72
0
 11
158849.907898909
 21
222452.982279043
 31
0
100
AcDbText
 73
0
  0
LINE
  5
170
100
AcDbEntity
  8
LOCCARD
100
AcDbLine
 10
158849.694898909
 20
222452.765279043
 30
0
 11
158849.694898909
 21
222452.765279043
 31
0
  0
LWPOLYLINE
  5
171
100
AcDbEntity
  8
LOCCARD
100
AcDbPolyline
 90
5
 70
1
 10
158833.159203318
 20
222448.301992326
 40
0
 41
0
 10
158833.159203318
 20
222450.431992326
 40
0
 41
0
 10
158836.935203318
 20
222450.431992326
 40
0
 41
0
 10
158836.935203318
 20
222448.301992326
 40
0
 41
0
 10
158833.159203318
 20
222448.301992326
 40
0
 41
0
  0
TEXT
  5
172
100
AcDbEntity
  8
LOCCARD
 62
7
100
AcDbText
 10
158833.372203318
 20
222449.868992326
 30
0
 40
0.35
  1
0.01
 50
0
 41
1
 72
0
 11
158833.372203318
 21
222449.868992326
 31
0
100
AcDbText
 73
0
  0
TEXT
  5
173
100
AcDbEntity
  8
LOCCARD
 62
7
100
AcDbText
 10
158833.372203318
 20
222449.418992326
 30
0
 40
0.3
  1
DOUCHERUIMTE
 50
0
 41
1
 72
0
 11
158833.372203318
 21
222449.418992326
 31
0
100
AcDbText
 73
0
  0
TEXT
  5
174
100
AcDbEntity
  8
LOCCARD
 62
7
100
AcDbText
 10
158833.372203318
 20
222448.968992326
 30
0
 40
0.3
  1

 50
0
 41
1
 72
0
 11
158833.372203318
 21
222448.968992326
 31
0
100
AcDbText
 73
0
  0
TEXT
  5
175
100
AcDbEntity
  8
LOCCARD
 62
7
100
AcDbText
 10
158833.372203318
 20
222448.518992326
 30
0
 40
0.3
  1
Opp: 16.75 m²
 50
0
 41
1
 72
0
 11
158833.372203318
 21
222448.518992326
 31
0
100
AcDbText
 73
0
  0
LINE
  5
176
100
AcDbEntity
  8
LOCCARD
100
AcDbLine
 10
158833.159203318
 20
222448.301992326
 30
0
 11
158833.159203318
 21
222448.301992326
 31
0
  0
LWPOLYLINE
  5
177
100
AcDbEntity
  8
LOCCARD
100
AcDbPolyline
 90
5
 70
1
 10
158839.748077406
 20
222452.590501455
 40
0
 41
0
 10
158839.748077406
 20
222454.720501455
 40
0
 41
0
 10
158843.944077406
 20
222454.720501455
 40
0
 41
0
 10
158843.944077406
 20
222452.590501455
 40
0
 41
0
 10
158839.748077406
 20
222452.590501455
 40
0
 41
0
  0
TEXT
  5
178
100
AcDbEntity
  8
LOCCARD
 62
7
100
AcDbText
 10
158839.961077406
 20
222454.157501455
 30
0
 40
0.35
  1
0.05
 50
0
 41
1
 72
0
 11
158839.961077406
 21
222454.157501455
 31
0
100
AcDbText
 73
0
  0
TEXT
  5
179
100
AcDbEntity
  8
LOCCARD
 62
7
100
AcDbText
 10
158839.961077406
 20
222453.707501455
 30
0
 40
0.3
  1
INTERNAATKAMER
 50
0
 41
1
 72
0
 11
158839.961077406
 21
222453.707501455
 31
0
100
AcDbText
 73
0
  0
TEXT
  5
17A
100
AcDbEntity
  8
LOCCARD
 62
7
100
AcDbText
 10
158839.961077406
 20
222453.257501455
 30
0
 40
0.3
  1

 50
0
 41
1
 72
0
 11
158839.961077406
 21
222453.257501455
 31
0
100
AcDbText
 73
0
  0
TEXT
  5
17B
100
AcDbEntity
  8
LOCCARD
 62
7
100
AcDbText
 10
158839.961077406
 20
222452.807501455
 30
0
 40
0.3
  1
Opp: 7.41 m²
 50
0
 41
1
 72
0
 11
158839.961077406
 21
222452.807501455
 31
0
100
AcDbText
 73
0
  0
LINE
  5
17C
100
AcDbEntity
  8
LOCCARD
100
AcDbLine
 10
158839.748077406
 20
222452.590501455
 30
0
 11
158839.748077406
 21
222452.590501455
 31
0
  0
LWPOLYLINE
  5
17D
100
AcDbEntity
  8
LOCCARD
100
AcDbPolyline
 90
5
 70
1
 10
158840.865439317
 20
222446.945209903
 40
0
 41
0
 10
158840.865439317
 20
222449.075209903
 40
0
 41
0
 10
158845.061439317
 20
222449.075209903
 40
0
 41
0
 10
158845.061439317
 20
222446.945209903
 40
0
 41
0
 10
158840.865439317
 20
222446.945209903
 40
0
 41
0
  0
TEXT
  5
17E
100
AcDbEntity
  8
LOCCARD
 62
7
100
AcDbText
 10
158841.078439317
 20
222448.512209903
 30
0
 40
0.35
  1
0.06
 50
0
 41
1
 72
0
 11
158841.078439317
 21
222448.512209903
 31
0
100
AcDbText
 73
0
  0
TEXT
  5
17F
100
AcDbEntity
  8
LOCCARD
 62
7
100
AcDbText
 10
158841.078439317
 20
222448.062209903
 30
0
 40
0.3
  1
INTERNAATKAMER
 50
0
 41
1
 72
0
 11
158841.078439317
 21
222448.062209903
 31
0
100
AcDbText
 73
0
  0
TEXT
  5
180
100
AcDbEntity
  8
LOCCARD
 62
7
100
AcDbText
 10
158841.078439317
 20
222447.612209903
 30
0
 40
0.3
  1

 50
0
 41
1
 72
0
 11
158841.078439317
 21
222447.612209903
 31
0
100
AcDbText
 73
0
  0
TEXT
  5
181
100
AcDbEntity
  8
LOCCARD
 62
7
100
AcDbText
 10
158841.078439317
 20
222447.162209903
 30
0
 40
0.3
  1
Opp: 8.09 m²
 50
0
 41
1
 72
0
 11
158841.078439317
 21
222447.162209903
 31
0
100
AcDbText
 73
0
  0
LINE
  5
182
100
AcDbEntity
  8
LOCCARD
100
AcDbLine
 10
158840.865439317
 20
222446.945209903
 30
0
 11
158840.865439317
 21
222446.945209903
 31
0
  0
LWPOLYLINE
  5
183
100
AcDbEntity
  8
LOCCARD
100
AcDbPolyline
 90
5
 70
1
 10
158841.480024577
 20
222453.688521075
 40
0
 41
0
 10
158841.480024577
 20
222455.818521075
 40
0
 41
0
 10
158845.676024577
 20
222455.818521075
 40
0
 41
0
 10
158845.676024577
 20
222453.688521075
 40
0
 41
0
 10
158841.480024577
 20
222453.688521075
 40
0
 41
0
  0
TEXT
  5
184
100
AcDbEntity
  8
LOCCARD
 62
7
100
AcDbText
 10
158841.693024577
 20
222455.255521075
 30
0
 40
0.35
  1
0.07
 50
0
 41
1
 72
0
 11
158841.693024577
 21
222455.255521075
 31
0
100
AcDbText
 73
0
  0
TEXT
  5
185
100
AcDbEntity
  8
LOCCARD
 62
7
100
AcDbText
 10
158841.693024577
 20
222454.805521075
 30
0
 40
0.3
  1
INTERNAATKAMER
 50
0
 41
1
 72
0
 11
158841.693024577
 21
222454.805521075
 31
0
100
AcDbText
 73
0
  0
TEXT
  5
186
100
AcDbEntity
  8
LOCCARD
 62
7
100
AcDbText
 10
158841.693024577
 20
222454.355521075
 30
0
 40
0.3
  1

 50
0
 41
1
 72
0
 11
158841.693024577
 21
222454.355521075
 31
0
100
AcDbText
 73
0
  0
TEXT
  5
187
100
AcDbEntity
  8
LOCCARD
 62
7
100
AcDbText
 10
158841.693024577
 20
222453.905521075
 30
0
 40
0.3
  1
Opp: 7.6 m²
 50
0
 41
1
 72
0
 11
158841.693024577
 21
222453.905521075
 31
0
100
AcDbText
 73
0
  0
LINE
  5
188
100
AcDbEntity
  8
LOCCARD
100
AcDbLine
 10
158841.480024577
 20
222453.688521075
 30
0
 11
158841.480024577
 21
222453.688521075
 31
0
  0
LWPOLYLINE
  5
189
100
AcDbEntity
  8
LOCCARD
100
AcDbPolyline
 90
5
 70
1
 10
158842.717705756
 20
222448.13314079
 40
0
 41
0
 10
158842.717705756
 20
222450.26314079
 40
0
 41
0
 10
158846.913705756
 20
222450.26314079
 40
0
 41
0
 10
158846.913705756
 20
222448.13314079
 40
0
 41
0
 10
158842.717705756
 20
222448.13314079
 40
0
 41
0
  0
TEXT
  5
18A
100
AcDbEntity
  8
LOCCARD
 62
7
100
AcDbText
 10
158842.930705756
 20
222449.70014079
 30
0
 40
0.35
  1
0.08
 50
0
 41
1
 72
0
 11
158842.930705756
 21
222449.70014079
 31
0
100
AcDbText
 73
0
  0
TEXT
  5
18B
100
AcDbEntity
  8
LOCCARD
 62
7
100
AcDbText
 10
158842.930705756
 20
222449.25014079
 30
0
 40
0.3
  1
INTERNAATKAMER
 50
0
 41
1
 72
0
 11
158842.930705756
 21
222449.25014079
 31
0
100
AcDbText
 73
0
  0
TEXT
  5
18C
100
AcDbEntity
  8
LOCCARD
 62
7
100
AcDbText
 10
158842.930705756
 20
222448.80014079
 30
0
 40
0.3
  1

 50
0
 41
1
 72
0
 11
158842.930705756
 21
222448.80014079
 31
0
100
AcDbText
 73
0
  0
TEXT
  5
18D
100
AcDbEntity
  8
LOCCARD
 62
7
100
AcDbText
 10
158842.930705756
 20
222448.35014079
 30
0
 40
0.3
  1
Opp: 7.44 m²
 50
0
 41
1
 72
0
 11
158842.930705756
 21
222448.35014079
 31
0
100
AcDbText
 73
0
  0
LINE
  5
18E
100
AcDbEntity
  8
LOCCARD
100
AcDbLine
 10
158842.717705756
 20
222448.13314079
 30
0
 11
158842.717705756
 21
222448.13314079
 31
0
  0
LWPOLYLINE
  5
18F
100
AcDbEntity
  8
LOCCARD
100
AcDbPolyline
 90
5
 70
1
 10
158837.958232098
 20
222451.359647596
 40
0
 41
0
 10
158837.958232098
 20
222453.489647596
 40
0
 41
0
 10
158842.154232098
 20
222453.489647596
 40
0
 41
0
 10
158842.154232098
 20
222451.359647596
 40
0
 41
0
 10
158837.958232098
 20
222451.359647596
 40
0
 41
0
  0
TEXT
  5
190
100
AcDbEntity
  8
LOCCARD
 62
7
100
AcDbText
 10
158838.171232098
 20
222452.926647596
 30
0
 40
0.35
  1
0.03
 50
0
 41
1
 72
0
 11
158838.171232098
 21
222452.926647596
 31
0
100
AcDbText
 73
0
  0
TEXT
  5
191
100
AcDbEntity
  8
LOCCARD
 62
7
100
AcDbText
 10
158838.171232098
 20
222452.476647596
 30
0
 40
0.3
  1
INTERNAATKAMER
 50
0
 41
1
 72
0
 11
158838.171232098
 21
222452.476647596
 31
0
100
AcDbText
 73
0
  0
TEXT
  5
192
100
AcDbEntity
  8
LOCCARD
 62
7
100
AcDbText
 10
158838.171232098
 20
222452.026647596
 30
0
 40
0.3
  1

 50
0
 41
1
 72
0
 11
158838.171232098
 21
222452.026647596
 31
0
100
AcDbText
 73
0
  0
TEXT
  5
193
100
AcDbEntity
  8
LOCCARD
 62
7
100
AcDbText
 10
158838.171232098
 20
222451.576647596
 30
0
 40
0.3
  1
Opp: 8.02 m²
 50
0
 41
1
 72
0
 11
158838.171232098
 21
222451.576647596
 31
0
100
AcDbText
 73
0
  0
LINE
  5
194
100
AcDbEntity
  8
LOCCARD
100
AcDbLine
 10
158837.958232098
 20
222451.359647596
 30
0
 11
158837.958232098
 21
222451.359647596
 31
0
  0
LWPOLYLINE
  5
195
100
AcDbEntity
  8
LOCCARD
100
AcDbPolyline
 90
5
 70
1
 10
158830.751490172
 20
222445.126985982
 40
0
 41
0
 10
158830.751490172
 20
222447.256985982
 40
0
 41
0
 10
158833.777490172
 20
222447.256985982
 40
0
 41
0
 10
158833.777490172
 20
222445.126985982
 40
0
 41
0
 10
158830.751490172
 20
222445.126985982
 40
0
 41
0
  0
TEXT
  5
196
100
AcDbEntity
  8
LOCCARD
 62
7
100
AcDbText
 10
158830.964490172
 20
222446.693985982
 30
0
 40
0.35
  1
0.19
 50
0
 41
1
 72
0
 11
158830.964490172
 21
222446.693985982
 31
0
100
AcDbText
 73
0
  0
TEXT
  5
197
100
AcDbEntity
  8
LOCCARD
 62
7
100
AcDbText
 10
158830.964490172
 20
222446.243985982
 30
0
 40
0.3
  1
BUITENTRAP
 50
0
 41
1
 72
0
 11
158830.964490172
 21
222446.243985982
 31
0
100
AcDbText
 73
0
  0
TEXT
  5
198
100
AcDbEntity
  8
LOCCARD
 62
7
100
AcDbText
 10
158830.964490172
 20
222445.793985982
 30
0
 40
0.3
  1

 50
0
 41
1
 72
0
 11
158830.964490172
 21
222445.793985982
 31
0
100
AcDbText
 73
0
  0
TEXT
  5
199
100
AcDbEntity
  8
LOCCARD
 62
7
100
AcDbText
 10
158830.964490172
 20
222445.343985982
 30
0
 40
0.3
  1
Opp: 3.25 m²
 50
0
 41
1
 72
0
 11
158830.964490172
 21
222445.343985982
 31
0
100
AcDbText
 73
0
  0
LINE
  5
19A
100
AcDbEntity
  8
LOCCARD
100
AcDbLine
 10
158830.751490172
 20
222445.126985982
 30
0
 11
158830.751490172
 21
222445.126985982
 31
0
  0
INSERT
  5
1D4
100
AcDbEntity
  8
LEGEND
100
AcDbBlockReference
  2
$LEGENDRCT
 10
158846.767954976
 20
222446.599808588
 30
0
 41
0.01
 42
0.01
  0
INSERT
  5
1F1
100
AcDbEntity
  8
TITLE_BLOCK
100
AcDbBlockReference
  2
$TITLE_BLOCK
 10
158858.162173684
 20
222450.476153687
 30
0
 41
0.01
 42
0.01
  0
ENDSEC
  0
SECTION
  2
OBJECTS
  0
DICTIONARY
  5
1FD
100
AcDbDictionary
  3
ACAD_GROUP
350
1
  3
ACAD_MLINESTYLE
350
2
  0
DICTIONARY
  5
1
100
AcDbDictionary
  0
DICTIONARY
  5
2
100
AcDbDictionary
  0
ENDSEC
  0
EOF
